  0
SECTION
  2
HEADER
  9
$ACADVER
  1
AC1009
  0
ENDSEC
  0
SECTION
  2
TABLES
  0
TABLE
  2
LTYPE
 70
     3
  0
LTYPE
  2
LINETYPE_1
 70
    64
  3
See CAD-STD manual for LINETYPE_1
 72
    65
 73
     0
 40
0.0
  0
LTYPE
  2
LINETYPE_2
 70
    64
  3
See CAD-STD manual for LINETYPE_2
 72
    65
 73
     0
 40
0.0
  0
LTYPE
  2
LINETYPE_3
 70
    64
  3
See CAD-STD manual for LINETYPE_3
 72
    65
 73
     2
 40
0.1562
 49
0.125
 49
-0.0312
  0
LTYPE
  2
LINETYPE_4
 70
    64
  3
See CAD-STD manual for LINETYPE_4
 72
    65
 73
     4
 40
1.0
 49
0.75
 49
-0.0625
 49
0.125
 49
-0.0625
  0
LTYPE
  2
LINETYPE_5
 70
    64
  3
See CAD-STD manual for LINETYPE_5
 72
    65
 73
     2
 40
0.3125
 49
0.25
 49
-0.0625
  0
LTYPE
  2
LINETYPE_6
 70
    64
  3
See CAD-STD manual for LINETYPE_6
 72
    65
 73
     6
 40
1.1875
 49
0.75
 49
-0.0625
 49
0.125
 49
-0.0625
 49
0.125
 49
-0.0625
  0
LTYPE
  2
LINETYPE_7
 70
    64
  3
See CAD-STD manual for LINETYPE_7
 72
    65
 73
     6
 40
1.1875
 49
0.75
 49
-0.0625
 49
0.125
 49
-0.0625
 49
0.125
 49
-0.0625
  0
LTYPE
  2
LINETYPE_8
 70
    64
  3
See CAD-STD manual for LINETYPE_8
 72
    65
 73
     2
 40
0.125
 49
0.0625
 49
-0.0625
  0
LTYPE
  2
LINETYPE_9
 70
    64
  3
See CAD-STD manual for LINETYPE_9
 72
    65
 73
     2
 40
0.0625
 49
0.0001
 49
-0.0624
  0
LTYPE
  2
LINETYPE_10
 70
    64
  3
See CAD-STD manual for LINETYPE_10
 72
    65
 73
     4
 40
0.5625
 49
0.375
 49
-0.0625
 49
0.0625
 49
-0.0625
  0
LTYPE
  2
LINETYPE_11
 70
    64
  3
See CAD-STD manual for LINETYPE_11
 72
    65
 73
     0
 40
0.0
  0
ENDTAB
  0
TABLE
  2
LAYER
 70
    16
  0
LAYER
  2
0
 70
     0
 62
     7
  6
CONTINUOUS
  0
LAYER
  2
1
 70
     0
 62
     2
  6
CONTINUOUS
  0
LAYER
  2
2
 70
     0
 62
     4
  6
CONTINUOUS
  0
LAYER
  2
3
 70
     0
 62
     3
  6
CONTINUOUS
  0
LAYER
  2
4
 70
     0
 62
     9
  6
CONTINUOUS
  0
LAYER
  2
5
 70
     0
 62
     5
  6
CONTINUOUS
  0
LAYER
  2
6
 70
     0
 62
     6
  6
CONTINUOUS
  0
LAYER
  2
7
 70
     0
 62
     1
  6
CONTINUOUS
  0
LAYER
  2
8
 70
     0
 62
    40
  6
CONTINUOUS
  0
LAYER
  2
9
 70
     0
 62
    30
  6
CONTINUOUS
  0
LAYER
  2
10
 70
     0
 62
   134
  6
CONTINUOUS
  0
LAYER
  2
11
 70
     0
 62
    94
  6
CONTINUOUS
  0
LAYER
  2
12
 70
     0
 62
   254
  6
CONTINUOUS
  0
LAYER
  2
13
 70
     0
 62
   174
  6
CONTINUOUS
  0
LAYER
  2
14
 70
     0
 62
   214
  6
CONTINUOUS
  0
LAYER
  2
15
 70
     0
 62
    32
  6
CONTINUOUS
  0
ENDTAB
  0
ENDSEC
  0
SECTION
  2
ENTITIES
  0
POLYLINE
  8
0
  6
LINETYPE_1
 66
     1
 70
     1
 10
0.0
 20
0.0
 30
0.0
  0
VERTEX
  8
0
 10
3.2874
 20
5.5157
 30
0.0
  0
VERTEX
  8
0
 10
4.8622
 20
5.5157
 30
0.0
  0
VERTEX
  8
0
 10
4.8622
 20
5.122
 30
0.0
  0
VERTEX
  8
0
 10
3.2874
 20
5.122
 30
0.0
  0
SEQEND
  0
POLYLINE
  8
0
  6
LINETYPE_1
 66
     1
 70
     1
 10
0.0
 20
0.0
 30
0.0
  0
VERTEX
  8
0
 10
4.6654
 20
5.3188
 30
0.0
  0
VERTEX
  8
0
 10
4.6654
 20
5.3188
 30
0.0
  0
VERTEX
  8
0
 10
4.6654
 20
5.3188
 30
0.0
  0
VERTEX
  8
0
 10
4.6654
 20
5.3188
 30
0.0
  0
SEQEND
  0
POLYLINE
  8
0
  6
LINETYPE_1
 66
     1
 70
     1
 10
0.0
 20
0.0
 30
0.0
  0
VERTEX
  8
0
 10
3.4843
 20
5.3188
 30
0.0
  0
VERTEX
  8
0
 10
3.4843
 20
5.3188
 30
0.0
  0
VERTEX
  8
0
 10
3.4843
 20
5.3188
 30
0.0
  0
VERTEX
  8
0
 10
3.4843
 20
5.3188
 30
0.0
  0
SEQEND
  0
POLYLINE
  8
0
  6
LINETYPE_1
 66
     1
 70
     1
 10
0.0
 20
0.0
 30
0.0
  0
VERTEX
  8
0
 10
3.6811
 20
5.437
 30
0.0
  0
VERTEX
  8
0
 10
3.6811
 20
5.437
 30
0.0
  0
VERTEX
  8
0
 10
3.6811
 20
5.437
 30
0.0
  0
VERTEX
  8
0
 10
3.6811
 20
5.437
 30
0.0
  0
SEQEND
  0
POLYLINE
  8
0
  6
LINETYPE_1
 66
     1
 70
     1
 10
0.0
 20
0.0
 30
0.0
  0
VERTEX
  8
0
 10
4.0748
 20
5.122
 30
0.0
  0
VERTEX
  8
0
 10
4.0748
 20
5.122
 30
0.0
  0
VERTEX
  8
0
 10
4.0748
 20
5.122
 30
0.0
  0
VERTEX
  8
0
 10
4.0748
 20
5.122
 30
0.0
  0
SEQEND
  0
POLYLINE
  8
0
  6
LINETYPE_1
 66
     1
 70
     1
 10
0.0
 20
0.0
 30
0.0
  0
VERTEX
  8
0
 10
4.0748
 20
5.122
 30
0.0
  0
VERTEX
  8
0
 10
4.0748
 20
5.122
 30
0.0
  0
VERTEX
  8
0
 10
4.0748
 20
5.122
 30
0.0
  0
VERTEX
  8
0
 10
4.0748
 20
5.122
 30
0.0
  0
SEQEND
  0
POLYLINE
  8
0
  6
LINETYPE_1
 66
     1
 70
     1
 10
0.0
 20
0.0
 30
0.0
  0
VERTEX
  8
0
 10
4.0748
 20
5.122
 30
0.0
  0
VERTEX
  8
0
 10
4.0748
 20
5.122
 30
0.0
  0
VERTEX
  8
0
 10
4.0748
 20
5.122
 30
0.0
  0
VERTEX
  8
0
 10
4.0748
 20
5.122
 30
0.0
  0
SEQEND
  0
POLYLINE
  8
0
  6
LINETYPE_1
 66
     1
 70
     1
 10
0.0
 20
0.0
 30
0.0
  0
VERTEX
  8
0
 10
4.0748
 20
5.3188
 30
0.0
  0
VERTEX
  8
0
 10
4.0748
 20
5.3188
 30
0.0
  0
VERTEX
  8
0
 10
4.0748
 20
5.3188
 30
0.0
  0
VERTEX
  8
0
 10
4.0748
 20
5.3188
 30
0.0
  0
SEQEND
  0
POLYLINE
  8
0
  6
LINETYPE_1
 66
     1
 70
     1
 10
0.0
 20
0.0
 30
0.0
  0
VERTEX
  8
0
 10
4.4685
 20
5.437
 30
0.0
  0
VERTEX
  8
0
 10
4.4685
 20
5.437
 30
0.0
  0
VERTEX
  8
0
 10
4.4685
 20
5.437
 30
0.0
  0
VERTEX
  8
0
 10
4.4685
 20
5.437
 30
0.0
  0
SEQEND
  0
POLYLINE
  8
0
  6
LINETYPE_2
 66
     1
 10
0.0
 20
0.0
 30
0.0
  0
VERTEX
  8
0
 10
4.9242
 20
5.122
 30
0.0
  0
VERTEX
  8
0
 10
5.6171
 20
5.122
 30
0.0
  0
SEQEND
  0
POLYLINE
  8
0
  6
LINETYPE_2
 66
     1
 10
0.0
 20
0.0
 30
0.0
  0
VERTEX
  8
0
 10
4.9242
 20
5.5157
 30
0.0
  0
VERTEX
  8
0
 10
5.6171
 20
5.5157
 30
0.0
  0
SEQEND
  0
POLYLINE
  8
0
  6
LINETYPE_2
 66
     1
 10
0.0
 20
0.0
 30
0.0
  0
VERTEX
  8
0
 10
5.4921
 20
5.122
 30
0.0
  0
VERTEX
  8
0
 10
5.4671
 20
4.997
 30
0.0
  0
VERTEX
  8
0
 10
5.5171
 20
4.997
 30
0.0
  0
VERTEX
  8
0
 10
5.4921
 20
5.122
 30
0.0
  0
VERTEX
  8
0
 10
5.4921
 20
5.102
 30
0.0
  0
VERTEX
  8
0
 10
5.4721
 20
5.002
 30
0.0
  0
VERTEX
  8
0
 10
5.5121
 20
5.002
 30
0.0
  0
VERTEX
  8
0
 10
5.4921
 20
5.102
 30
0.0
  0
VERTEX
  8
0
 10
5.4921
 20
5.082
 30
0.0
  0
VERTEX
  8
0
 10
5.4771
 20
5.007
 30
0.0
  0
VERTEX
  8
0
 10
5.5071
 20
5.007
 30
0.0
  0
VERTEX
  8
0
 10
5.4921
 20
5.077
 30
0.0
  0
VERTEX
  8
0
 10
5.4921
 20
5.062
 30
0.0
  0
VERTEX
  8
0
 10
5.4821
 20
5.012
 30
0.0
  0
VERTEX
  8
0
 10
5.5021
 20
5.012
 30
0.0
  0
VERTEX
  8
0
 10
5.4921
 20
5.057
 30
0.0
  0
VERTEX
  8
0
 10
5.4921
 20
5.037
 30
0.0
  0
VERTEX
  8
0
 10
5.4871
 20
5.017
 30
0.0
  0
VERTEX
  8
0
 10
5.4971
 20
5.017
 30
0.0
  0
VERTEX
  8
0
 10
5.4921
 20
5.037
 30
0.0
  0
SEQEND
  0
POLYLINE
  8
0
  6
LINETYPE_2
 66
     1
 10
0.0
 20
0.0
 30
0.0
  0
VERTEX
  8
0
 10
5.4921
 20
4.872
 30
0.0
  0
VERTEX
  8
0
 10
5.4921
 20
5.122
 30
0.0
  0
SEQEND
  0
POLYLINE
  8
0
  6
LINETYPE_2
 66
     1
 10
0.0
 20
0.0
 30
0.0
  0
VERTEX
  8
0
 10
5.4921
 20
5.5157
 30
0.0
  0
VERTEX
  8
0
 10
5.5171
 20
5.6407
 30
0.0
  0
VERTEX
  8
0
 10
5.4671
 20
5.6407
 30
0.0
  0
VERTEX
  8
0
 10
5.4921
 20
5.5157
 30
0.0
  0
VERTEX
  8
0
 10
5.4921
 20
5.5357
 30
0.0
  0
VERTEX
  8
0
 10
5.5121
 20
5.6357
 30
0.0
  0
VERTEX
  8
0
 10
5.4721
 20
5.6357
 30
0.0
  0
VERTEX
  8
0
 10
5.4921
 20
5.5357
 30
0.0
  0
VERTEX
  8
0
 10
5.4921
 20
5.5557
 30
0.0
  0
VERTEX
  8
0
 10
5.5071
 20
5.6307
 30
0.0
  0
VERTEX
  8
0
 10
5.4771
 20
5.6307
 30
0.0
  0
VERTEX
  8
0
 10
5.4921
 20
5.5607
 30
0.0
  0
VERTEX
  8
0
 10
5.4921
 20
5.5757
 30
0.0
  0
VERTEX
  8
0
 10
5.5021
 20
5.6257
 30
0.0
  0
VERTEX
  8
0
 10
5.4821
 20
5.6257
 30
0.0
  0
VERTEX
  8
0
 10
5.4921
 20
5.5807
 30
0.0
  0
VERTEX
  8
0
 10
5.4921
 20
5.6007
 30
0.0
  0
VERTEX
  8
0
 10
5.4971
 20
5.6207
 30
0.0
  0
VERTEX
  8
0
 10
5.4871
 20
5.6207
 30
0.0
  0
VERTEX
  8
0
 10
5.4921
 20
5.6007
 30
0.0
  0
SEQEND
  0
POLYLINE
  8
0
  6
LINETYPE_2
 66
     1
 10
0.0
 20
0.0
 30
0.0
  0
VERTEX
  8
0
 10
5.4921
 20
5.7657
 30
0.0
  0
VERTEX
  8
0
 10
5.4921
 20
5.5157
 30
0.0
  0
SEQEND
  0
TEXT
  8
0
 10
5.561
 20
5.8277
 30
0.0
 40
0.1378
  1
10
 50
90.000000
  0
POLYLINE
  8
0
  6
LINETYPE_2
 66
     1
 10
0.0
 20
0.0
 30
0.0
  0
VERTEX
  8
0
 10
4.9242
 20
5.122
 30
0.0
  0
VERTEX
  8
0
 10
5.4596
 20
5.122
 30
0.0
  0
SEQEND
  0
POLYLINE
  8
0
  6
LINETYPE_2
 66
     1
 10
0.0
 20
0.0
 30
0.0
  0
VERTEX
  8
0
 10
4.5305
 20
5.437
 30
0.0
  0
VERTEX
  8
0
 10
5.4596
 20
5.437
 30
0.0
  0
SEQEND
  0
POLYLINE
  8
0
  6
LINETYPE_2
 66
     1
 10
0.0
 20
0.0
 30
0.0
  0
VERTEX
  8
0
 10
5.3346
 20
5.122
 30
0.0
  0
VERTEX
  8
0
 10
5.3096
 20
4.997
 30
0.0
  0
VERTEX
  8
0
 10
5.3596
 20
4.997
 30
0.0
  0
VERTEX
  8
0
 10
5.3346
 20
5.122
 30
0.0
  0
VERTEX
  8
0
 10
5.3346
 20
5.102
 30
0.0
  0
VERTEX
  8
0
 10
5.3146
 20
5.002
 30
0.0
  0
VERTEX
  8
0
 10
5.3546
 20
5.002
 30
0.0
  0
VERTEX
  8
0
 10
5.3346
 20
5.102
 30
0.0
  0
VERTEX
  8
0
 10
5.3346
 20
5.082
 30
0.0
  0
VERTEX
  8
0
 10
5.3196
 20
5.007
 30
0.0
  0
VERTEX
  8
0
 10
5.3496
 20
5.007
 30
0.0
  0
VERTEX
  8
0
 10
5.3346
 20
5.077
 30
0.0
  0
VERTEX
  8
0
 10
5.3346
 20
5.062
 30
0.0
  0
VERTEX
  8
0
 10
5.3246
 20
5.012
 30
0.0
  0
VERTEX
  8
0
 10
5.3446
 20
5.012
 30
0.0
  0
VERTEX
  8
0
 10
5.3346
 20
5.057
 30
0.0
  0
VERTEX
  8
0
 10
5.3346
 20
5.037
 30
0.0
  0
VERTEX
  8
0
 10
5.3296
 20
5.017
 30
0.0
  0
VERTEX
  8
0
 10
5.3396
 20
5.017
 30
0.0
  0
VERTEX
  8
0
 10
5.3346
 20
5.037
 30
0.0
  0
SEQEND
  0
POLYLINE
  8
0
  6
LINETYPE_2
 66
     1
 10
0.0
 20
0.0
 30
0.0
  0
VERTEX
  8
0
 10
5.3346
 20
4.872
 30
0.0
  0
VERTEX
  8
0
 10
5.3346
 20
5.122
 30
0.0
  0
SEQEND
  0
POLYLINE
  8
0
  6
LINETYPE_2
 66
     1
 10
0.0
 20
0.0
 30
0.0
  0
VERTEX
  8
0
 10
5.3346
 20
5.437
 30
0.0
  0
VERTEX
  8
0
 10
5.3596
 20
5.562
 30
0.0
  0
VERTEX
  8
0
 10
5.3096
 20
5.562
 30
0.0
  0
VERTEX
  8
0
 10
5.3346
 20
5.437
 30
0.0
  0
VERTEX
  8
0
 10
5.3346
 20
5.457
 30
0.0
  0
VERTEX
  8
0
 10
5.3546
 20
5.557
 30
0.0
  0
VERTEX
  8
0
 10
5.3146
 20
5.557
 30
0.0
  0
VERTEX
  8
0
 10
5.3346
 20
5.457
 30
0.0
  0
VERTEX
  8
0
 10
5.3346
 20
5.477
 30
0.0
  0
VERTEX
  8
0
 10
5.3496
 20
5.552
 30
0.0
  0
VERTEX
  8
0
 10
5.3196
 20
5.552
 30
0.0
  0
VERTEX
  8
0
 10
5.3346
 20
5.482
 30
0.0
  0
VERTEX
  8
0
 10
5.3346
 20
5.497
 30
0.0
  0
VERTEX
  8
0
 10
5.3446
 20
5.547
 30
0.0
  0
VERTEX
  8
0
 10
5.3246
 20
5.547
 30
0.0
  0
VERTEX
  8
0
 10
5.3346
 20
5.502
 30
0.0
  0
VERTEX
  8
0
 10
5.3346
 20
5.522
 30
0.0
  0
VERTEX
  8
0
 10
5.3396
 20
5.542
 30
0.0
  0
VERTEX
  8
0
 10
5.3296
 20
5.542
 30
0.0
  0
VERTEX
  8
0
 10
5.3346
 20
5.522
 30
0.0
  0
SEQEND
  0
POLYLINE
  8
0
  6
LINETYPE_2
 66
     1
 10
0.0
 20
0.0
 30
0.0
  0
VERTEX
  8
0
 10
5.3346
 20
5.687
 30
0.0
  0
VERTEX
  8
0
 10
5.3346
 20
5.437
 30
0.0
  0
SEQEND
  0
TEXT
  8
0
 10
5.4035
 20
5.749
 30
0.0
 40
0.1378
  1
8
 50
90.000000
  0
POLYLINE
  8
0
  6
LINETYPE_2
 66
     1
 10
0.0
 20
0.0
 30
0.0
  0
VERTEX
  8
0
 10
3.6191
 20
5.122
 30
0.0
  0
VERTEX
  8
0
 10
3.0837
 20
5.122
 30
0.0
  0
SEQEND
  0
POLYLINE
  8
0
  6
LINETYPE_2
 66
     1
 10
0.0
 20
0.0
 30
0.0
  0
VERTEX
  8
0
 10
3.6191
 20
5.437
 30
0.0
  0
VERTEX
  8
0
 10
3.0837
 20
5.437
 30
0.0
  0
SEQEND
  0
POLYLINE
  8
0
  6
LINETYPE_2
 66
     1
 10
0.0
 20
0.0
 30
0.0
  0
VERTEX
  8
0
 10
3.2087
 20
5.122
 30
0.0
  0
VERTEX
  8
0
 10
3.1837
 20
4.997
 30
0.0
  0
VERTEX
  8
0
 10
3.2337
 20
4.997
 30
0.0
  0
VERTEX
  8
0
 10
3.2087
 20
5.122
 30
0.0
  0
VERTEX
  8
0
 10
3.2087
 20
5.102
 30
0.0
  0
VERTEX
  8
0
 10
3.1887
 20
5.002
 30
0.0
  0
VERTEX
  8
0
 10
3.2287
 20
5.002
 30
0.0
  0
VERTEX
  8
0
 10
3.2087
 20
5.102
 30
0.0
  0
VERTEX
  8
0
 10
3.2087
 20
5.082
 30
0.0
  0
VERTEX
  8
0
 10
3.1937
 20
5.007
 30
0.0
  0
VERTEX
  8
0
 10
3.2237
 20
5.007
 30
0.0
  0
VERTEX
  8
0
 10
3.2087
 20
5.077
 30
0.0
  0
VERTEX
  8
0
 10
3.2087
 20
5.062
 30
0.0
  0
VERTEX
  8
0
 10
3.1987
 20
5.012
 30
0.0
  0
VERTEX
  8
0
 10
3.2187
 20
5.012
 30
0.0
  0
VERTEX
  8
0
 10
3.2087
 20
5.057
 30
0.0
  0
VERTEX
  8
0
 10
3.2087
 20
5.037
 30
0.0
  0
VERTEX
  8
0
 10
3.2037
 20
5.017
 30
0.0
  0
VERTEX
  8
0
 10
3.2137
 20
5.017
 30
0.0
  0
VERTEX
  8
0
 10
3.2087
 20
5.037
 30
0.0
  0
SEQEND
  0
POLYLINE
  8
0
  6
LINETYPE_2
 66
     1
 10
0.0
 20
0.0
 30
0.0
  0
VERTEX
  8
0
 10
3.2087
 20
4.872
 30
0.0
  0
VERTEX
  8
0
 10
3.2087
 20
5.122
 30
0.0
  0
SEQEND
  0
POLYLINE
  8
0
  6
LINETYPE_2
 66
     1
 10
0.0
 20
0.0
 30
0.0
  0
VERTEX
  8
0
 10
3.2087
 20
5.437
 30
0.0
  0
VERTEX
  8
0
 10
3.2337
 20
5.562
 30
0.0
  0
VERTEX
  8
0
 10
3.1837
 20
5.562
 30
0.0
  0
VERTEX
  8
0
 10
3.2087
 20
5.437
 30
0.0
  0
VERTEX
  8
0
 10
3.2087
 20
5.457
 30
0.0
  0
VERTEX
  8
0
 10
3.2287
 20
5.557
 30
0.0
  0
VERTEX
  8
0
 10
3.1887
 20
5.557
 30
0.0
  0
VERTEX
  8
0
 10
3.2087
 20
5.457
 30
0.0
  0
VERTEX
  8
0
 10
3.2087
 20
5.477
 30
0.0
  0
VERTEX
  8
0
 10
3.2237
 20
5.552
 30
0.0
  0
VERTEX
  8
0
 10
3.1937
 20
5.552
 30
0.0
  0
VERTEX
  8
0
 10
3.2087
 20
5.482
 30
0.0
  0
VERTEX
  8
0
 10
3.2087
 20
5.497
 30
0.0
  0
VERTEX
  8
0
 10
3.2187
 20
5.547
 30
0.0
  0
VERTEX
  8
0
 10
3.1987
 20
5.547
 30
0.0
  0
VERTEX
  8
0
 10
3.2087
 20
5.502
 30
0.0
  0
VERTEX
  8
0
 10
3.2087
 20
5.522
 30
0.0
  0
VERTEX
  8
0
 10
3.2137
 20
5.542
 30
0.0
  0
VERTEX
  8
0
 10
3.2037
 20
5.542
 30
0.0
  0
VERTEX
  8
0
 10
3.2087
 20
5.522
 30
0.0
  0
SEQEND
  0
POLYLINE
  8
0
  6
LINETYPE_2
 66
     1
 10
0.0
 20
0.0
 30
0.0
  0
VERTEX
  8
0
 10
3.2087
 20
5.687
 30
0.0
  0
VERTEX
  8
0
 10
3.2087
 20
5.437
 30
0.0
  0
SEQEND
  0
TEXT
  8
0
 10
3.2776
 20
5.749
 30
0.0
 40
0.1378
  1
8
 50
90.000000
  0
POLYLINE
  8
0
  6
LINETYPE_2
 66
     1
 10
0.0
 20
0.0
 30
0.0
  0
VERTEX
  8
0
 10
3.2874
 20
5.06
 30
0.0
  0
VERTEX
  8
0
 10
3.2874
 20
4.2096
 30
0.0
  0
SEQEND
  0
POLYLINE
  8
0
  6
LINETYPE_2
 66
     1
 10
0.0
 20
0.0
 30
0.0
  0
VERTEX
  8
0
 10
4.8622
 20
5.06
 30
0.0
  0
VERTEX
  8
0
 10
4.8622
 20
4.2096
 30
0.0
  0
SEQEND
  0
POLYLINE
  8
0
  6
LINETYPE_2
 66
     1
 10
0.0
 20
0.0
 30
0.0
  0
VERTEX
  8
0
 10
3.2874
 20
4.3346
 30
0.0
  0
VERTEX
  8
0
 10
3.1624
 20
4.3596
 30
0.0
  0
VERTEX
  8
0
 10
3.1624
 20
4.3096
 30
0.0
  0
VERTEX
  8
0
 10
3.2874
 20
4.3346
 30
0.0
  0
VERTEX
  8
0
 10
3.2674
 20
4.3346
 30
0.0
  0
VERTEX
  8
0
 10
3.1674
 20
4.3546
 30
0.0
  0
VERTEX
  8
0
 10
3.1674
 20
4.3146
 30
0.0
  0
VERTEX
  8
0
 10
3.2674
 20
4.3346
 30
0.0
  0
VERTEX
  8
0
 10
3.2474
 20
4.3346
 30
0.0
  0
VERTEX
  8
0
 10
3.1724
 20
4.3496
 30
0.0
  0
VERTEX
  8
0
 10
3.1724
 20
4.3196
 30
0.0
  0
VERTEX
  8
0
 10
3.2424
 20
4.3346
 30
0.0
  0
VERTEX
  8
0
 10
3.2274
 20
4.3346
 30
0.0
  0
VERTEX
  8
0
 10
3.1774
 20
4.3446
 30
0.0
  0
VERTEX
  8
0
 10
3.1774
 20
4.3246
 30
0.0
  0
VERTEX
  8
0
 10
3.2224
 20
4.3346
 30
0.0
  0
VERTEX
  8
0
 10
3.2024
 20
4.3346
 30
0.0
  0
VERTEX
  8
0
 10
3.1824
 20
4.3396
 30
0.0
  0
VERTEX
  8
0
 10
3.1824
 20
4.3296
 30
0.0
  0
VERTEX
  8
0
 10
3.2024
 20
4.3346
 30
0.0
  0
SEQEND
  0
POLYLINE
  8
0
  6
LINETYPE_2
 66
     1
 10
0.0
 20
0.0
 30
0.0
  0
VERTEX
  8
0
 10
3.0374
 20
4.3346
 30
0.0
  0
VERTEX
  8
0
 10
3.2874
 20
4.3346
 30
0.0
  0
SEQEND
  0
POLYLINE
  8
0
  6
LINETYPE_2
 66
     1
 10
0.0
 20
0.0
 30
0.0
  0
VERTEX
  8
0
 10
4.8622
 20
4.3346
 30
0.0
  0
VERTEX
  8
0
 10
4.9872
 20
4.3096
 30
0.0
  0
VERTEX
  8
0
 10
4.9872
 20
4.3596
 30
0.0
  0
VERTEX
  8
0
 10
4.8622
 20
4.3346
 30
0.0
  0
VERTEX
  8
0
 10
4.8822
 20
4.3346
 30
0.0
  0
VERTEX
  8
0
 10
4.9822
 20
4.3146
 30
0.0
  0
VERTEX
  8
0
 10
4.9822
 20
4.3546
 30
0.0
  0
VERTEX
  8
0
 10
4.8822
 20
4.3346
 30
0.0
  0
VERTEX
  8
0
 10
4.9022
 20
4.3346
 30
0.0
  0
VERTEX
  8
0
 10
4.9772
 20
4.3196
 30
0.0
  0
VERTEX
  8
0
 10
4.9772
 20
4.3496
 30
0.0
  0
VERTEX
  8
0
 10
4.9072
 20
4.3346
 30
0.0
  0
VERTEX
  8
0
 10
4.9222
 20
4.3346
 30
0.0
  0
VERTEX
  8
0
 10
4.9722
 20
4.3246
 30
0.0
  0
VERTEX
  8
0
 10
4.9722
 20
4.3446
 30
0.0
  0
VERTEX
  8
0
 10
4.9272
 20
4.3346
 30
0.0
  0
VERTEX
  8
0
 10
4.9472
 20
4.3346
 30
0.0
  0
VERTEX
  8
0
 10
4.9672
 20
4.3296
 30
0.0
  0
VERTEX
  8
0
 10
4.9672
 20
4.3396
 30
0.0
  0
VERTEX
  8
0
 10
4.9472
 20
4.3346
 30
0.0
  0
SEQEND
  0
POLYLINE
  8
0
  6
LINETYPE_2
 66
     1
 10
0.0
 20
0.0
 30
0.0
  0
VERTEX
  8
0
 10
5.1122
 20
4.3346
 30
0.0
  0
VERTEX
  8
0
 10
4.8622
 20
4.3346
 30
0.0
  0
SEQEND
  0
TEXT
  8
0
 10
5.1742
 20
4.2657
 30
0.0
 40
0.1378
  1
40
 50
0.000000
  0
POLYLINE
  8
0
  6
LINETYPE_2
 66
     1
 10
0.0
 20
0.0
 30
0.0
  0
VERTEX
  8
0
 10
3.2874
 20
5.06
 30
0.0
  0
VERTEX
  8
0
 10
3.2874
 20
4.6033
 30
0.0
  0
SEQEND
  0
POLYLINE
  8
0
  6
LINETYPE_2
 66
     1
 10
0.0
 20
0.0
 30
0.0
  0
VERTEX
  8
0
 10
3.4843
 20
5.2568
 30
0.0
  0
VERTEX
  8
0
 10
3.4843
 20
4.6033
 30
0.0
  0
SEQEND
  0
POLYLINE
  8
0
  6
LINETYPE_2
 66
     1
 10
0.0
 20
0.0
 30
0.0
  0
VERTEX
  8
0
 10
3.2874
 20
4.7283
 30
0.0
  0
VERTEX
  8
0
 10
3.1624
 20
4.7533
 30
0.0
  0
VERTEX
  8
0
 10
3.1624
 20
4.7033
 30
0.0
  0
VERTEX
  8
0
 10
3.2874
 20
4.7283
 30
0.0
  0
VERTEX
  8
0
 10
3.2674
 20
4.7283
 30
0.0
  0
VERTEX
  8
0
 10
3.1674
 20
4.7483
 30
0.0
  0
VERTEX
  8
0
 10
3.1674
 20
4.7083
 30
0.0
  0
VERTEX
  8
0
 10
3.2674
 20
4.7283
 30
0.0
  0
VERTEX
  8
0
 10
3.2474
 20
4.7283
 30
0.0
  0
VERTEX
  8
0
 10
3.1724
 20
4.7433
 30
0.0
  0
VERTEX
  8
0
 10
3.1724
 20
4.7133
 30
0.0
  0
VERTEX
  8
0
 10
3.2424
 20
4.7283
 30
0.0
  0
VERTEX
  8
0
 10
3.2274
 20
4.7283
 30
0.0
  0
VERTEX
  8
0
 10
3.1774
 20
4.7383
 30
0.0
  0
VERTEX
  8
0
 10
3.1774
 20
4.7183
 30
0.0
  0
VERTEX
  8
0
 10
3.2224
 20
4.7283
 30
0.0
  0
VERTEX
  8
0
 10
3.2024
 20
4.7283
 30
0.0
  0
VERTEX
  8
0
 10
3.1824
 20
4.7333
 30
0.0
  0
VERTEX
  8
0
 10
3.1824
 20
4.7233
 30
0.0
  0
VERTEX
  8
0
 10
3.2024
 20
4.7283
 30
0.0
  0
SEQEND
  0
POLYLINE
  8
0
  6
LINETYPE_2
 66
     1
 10
0.0
 20
0.0
 30
0.0
  0
VERTEX
  8
0
 10
3.0374
 20
4.7283
 30
0.0
  0
VERTEX
  8
0
 10
3.2874
 20
4.7283
 30
0.0
  0
SEQEND
  0
POLYLINE
  8
0
  6
LINETYPE_2
 66
     1
 10
0.0
 20
0.0
 30
0.0
  0
VERTEX
  8
0
 10
3.4843
 20
4.7283
 30
0.0
  0
VERTEX
  8
0
 10
3.6093
 20
4.7033
 30
0.0
  0
VERTEX
  8
0
 10
3.6093
 20
4.7533
 30
0.0
  0
VERTEX
  8
0
 10
3.4843
 20
4.7283
 30
0.0
  0
VERTEX
  8
0
 10
3.5043
 20
4.7283
 30
0.0
  0
VERTEX
  8
0
 10
3.6043
 20
4.7083
 30
0.0
  0
VERTEX
  8
0
 10
3.6043
 20
4.7483
 30
0.0
  0
VERTEX
  8
0
 10
3.5043
 20
4.7283
 30
0.0
  0
VERTEX
  8
0
 10
3.5243
 20
4.7283
 30
0.0
  0
VERTEX
  8
0
 10
3.5993
 20
4.7133
 30
0.0
  0
VERTEX
  8
0
 10
3.5993
 20
4.7433
 30
0.0
  0
VERTEX
  8
0
 10
3.5293
 20
4.7283
 30
0.0
  0
VERTEX
  8
0
 10
3.5443
 20
4.7283
 30
0.0
  0
VERTEX
  8
0
 10
3.5943
 20
4.7183
 30
0.0
  0
VERTEX
  8
0
 10
3.5943
 20
4.7383
 30
0.0
  0
VERTEX
  8
0
 10
3.5493
 20
4.7283
 30
0.0
  0
VERTEX
  8
0
 10
3.5693
 20
4.7283
 30
0.0
  0
VERTEX
  8
0
 10
3.5893
 20
4.7233
 30
0.0
  0
VERTEX
  8
0
 10
3.5893
 20
4.7333
 30
0.0
  0
VERTEX
  8
0
 10
3.5693
 20
4.7283
 30
0.0
  0
SEQEND
  0
POLYLINE
  8
0
  6
LINETYPE_2
 66
     1
 10
0.0
 20
0.0
 30
0.0
  0
VERTEX
  8
0
 10
3.7343
 20
4.7283
 30
0.0
  0
VERTEX
  8
0
 10
3.4843
 20
4.7283
 30
0.0
  0
SEQEND
  0
TEXT
  8
0
 10
2.8376
 20
4.6594
 30
0.0
 40
0.1378
  1
5
 50
0.000000
  0
POLYLINE
  8
0
  6
LINETYPE_2
 66
     1
 10
0.0
 20
0.0
 30
0.0
  0
VERTEX
  8
0
 10
3.2874
 20
5.06
 30
0.0
  0
VERTEX
  8
0
 10
3.2874
 20
4.4064
 30
0.0
  0
SEQEND
  0
POLYLINE
  8
0
  6
LINETYPE_2
 66
     1
 10
0.0
 20
0.0
 30
0.0
  0
VERTEX
  8
0
 10
3.6811
 20
5.4537
 30
0.0
  0
VERTEX
  8
0
 10
3.6811
 20
4.4064
 30
0.0
  0
SEQEND
  0
POLYLINE
  8
0
  6
LINETYPE_2
 66
     1
 10
0.0
 20
0.0
 30
0.0
  0
VERTEX
  8
0
 10
3.2874
 20
4.5314
 30
0.0
  0
VERTEX
  8
0
 10
3.1624
 20
4.5564
 30
0.0
  0
VERTEX
  8
0
 10
3.1624
 20
4.5064
 30
0.0
  0
VERTEX
  8
0
 10
3.2874
 20
4.5314
 30
0.0
  0
VERTEX
  8
0
 10
3.2674
 20
4.5314
 30
0.0
  0
VERTEX
  8
0
 10
3.1674
 20
4.5514
 30
0.0
  0
VERTEX
  8
0
 10
3.1674
 20
4.5114
 30
0.0
  0
VERTEX
  8
0
 10
3.2674
 20
4.5314
 30
0.0
  0
VERTEX
  8
0
 10
3.2474
 20
4.5314
 30
0.0
  0
VERTEX
  8
0
 10
3.1724
 20
4.5464
 30
0.0
  0
VERTEX
  8
0
 10
3.1724
 20
4.5164
 30
0.0
  0
VERTEX
  8
0
 10
3.2424
 20
4.5314
 30
0.0
  0
VERTEX
  8
0
 10
3.2274
 20
4.5314
 30
0.0
  0
VERTEX
  8
0
 10
3.1774
 20
4.5414
 30
0.0
  0
VERTEX
  8
0
 10
3.1774
 20
4.5214
 30
0.0
  0
VERTEX
  8
0
 10
3.2224
 20
4.5314
 30
0.0
  0
VERTEX
  8
0
 10
3.2024
 20
4.5314
 30
0.0
  0
VERTEX
  8
0
 10
3.1824
 20
4.5364
 30
0.0
  0
VERTEX
  8
0
 10
3.1824
 20
4.5264
 30
0.0
  0
VERTEX
  8
0
 10
3.2024
 20
4.5314
 30
0.0
  0
SEQEND
  0
POLYLINE
  8
0
  6
LINETYPE_2
 66
     1
 10
0.0
 20
0.0
 30
0.0
  0
VERTEX
  8
0
 10
3.0374
 20
4.5314
 30
0.0
  0
VERTEX
  8
0
 10
3.2874
 20
4.5314
 30
0.0
  0
SEQEND
  0
POLYLINE
  8
0
  6
LINETYPE_2
 66
     1
 10
0.0
 20
0.0
 30
0.0
  0
VERTEX
  8
0
 10
3.6811
 20
4.5314
 30
0.0
  0
VERTEX
  8
0
 10
3.8061
 20
4.5064
 30
0.0
  0
VERTEX
  8
0
 10
3.8061
 20
4.5564
 30
0.0
  0
VERTEX
  8
0
 10
3.6811
 20
4.5314
 30
0.0
  0
VERTEX
  8
0
 10
3.7011
 20
4.5314
 30
0.0
  0
VERTEX
  8
0
 10
3.8011
 20
4.5114
 30
0.0
  0
VERTEX
  8
0
 10
3.8011
 20
4.5514
 30
0.0
  0
VERTEX
  8
0
 10
3.7011
 20
4.5314
 30
0.0
  0
VERTEX
  8
0
 10
3.7211
 20
4.5314
 30
0.0
  0
VERTEX
  8
0
 10
3.7961
 20
4.5164
 30
0.0
  0
VERTEX
  8
0
 10
3.7961
 20
4.5464
 30
0.0
  0
VERTEX
  8
0
 10
3.7261
 20
4.5314
 30
0.0
  0
VERTEX
  8
0
 10
3.7411
 20
4.5314
 30
0.0
  0
VERTEX
  8
0
 10
3.7911
 20
4.5214
 30
0.0
  0
VERTEX
  8
0
 10
3.7911
 20
4.5414
 30
0.0
  0
VERTEX
  8
0
 10
3.7461
 20
4.5314
 30
0.0
  0
VERTEX
  8
0
 10
3.7661
 20
4.5314
 30
0.0
  0
VERTEX
  8
0
 10
3.7861
 20
4.5264
 30
0.0
  0
VERTEX
  8
0
 10
3.7861
 20
4.5364
 30
0.0
  0
VERTEX
  8
0
 10
3.7661
 20
4.5314
 30
0.0
  0
SEQEND
  0
POLYLINE
  8
0
  6
LINETYPE_2
 66
     1
 10
0.0
 20
0.0
 30
0.0
  0
VERTEX
  8
0
 10
3.9311
 20
4.5314
 30
0.0
  0
VERTEX
  8
0
 10
3.6811
 20
4.5314
 30
0.0
  0
SEQEND
  0
TEXT
  8
0
 10
2.6998
 20
4.4625
 30
0.0
 40
0.1378
  1
10
 50
0.000000
  0
POLYLINE
  8
0
  6
LINETYPE_2
 66
     1
 10
0.0
 20
0.0
 30
0.0
  0
VERTEX
  8
0
 10
4.6654
 20
5.2568
 30
0.0
  0
VERTEX
  8
0
 10
4.6654
 20
4.8001
 30
0.0
  0
SEQEND
  0
POLYLINE
  8
0
  6
LINETYPE_2
 66
     1
 10
0.0
 20
0.0
 30
0.0
  0
VERTEX
  8
0
 10
4.8622
 20
5.06
 30
0.0
  0
VERTEX
  8
0
 10
4.8622
 20
4.8001
 30
0.0
  0
SEQEND
  0
POLYLINE
  8
0
  6
LINETYPE_2
 66
     1
 10
0.0
 20
0.0
 30
0.0
  0
VERTEX
  8
0
 10
4.6654
 20
4.9251
 30
0.0
  0
VERTEX
  8
0
 10
4.5404
 20
4.9501
 30
0.0
  0
VERTEX
  8
0
 10
4.5404
 20
4.9001
 30
0.0
  0
VERTEX
  8
0
 10
4.6654
 20
4.9251
 30
0.0
  0
VERTEX
  8
0
 10
4.6454
 20
4.9251
 30
0.0
  0
VERTEX
  8
0
 10
4.5454
 20
4.9451
 30
0.0
  0
VERTEX
  8
0
 10
4.5454
 20
4.9051
 30
0.0
  0
VERTEX
  8
0
 10
4.6454
 20
4.9251
 30
0.0
  0
VERTEX
  8
0
 10
4.6254
 20
4.9251
 30
0.0
  0
VERTEX
  8
0
 10
4.5504
 20
4.9401
 30
0.0
  0
VERTEX
  8
0
 10
4.5504
 20
4.9101
 30
0.0
  0
VERTEX
  8
0
 10
4.6204
 20
4.9251
 30
0.0
  0
VERTEX
  8
0
 10
4.6054
 20
4.9251
 30
0.0
  0
VERTEX
  8
0
 10
4.5554
 20
4.9351
 30
0.0
  0
VERTEX
  8
0
 10
4.5554
 20
4.9151
 30
0.0
  0
VERTEX
  8
0
 10
4.6004
 20
4.9251
 30
0.0
  0
VERTEX
  8
0
 10
4.5804
 20
4.9251
 30
0.0
  0
VERTEX
  8
0
 10
4.5604
 20
4.9301
 30
0.0
  0
VERTEX
  8
0
 10
4.5604
 20
4.9201
 30
0.0
  0
VERTEX
  8
0
 10
4.5804
 20
4.9251
 30
0.0
  0
SEQEND
  0
POLYLINE
  8
0
  6
LINETYPE_2
 66
     1
 10
0.0
 20
0.0
 30
0.0
  0
VERTEX
  8
0
 10
4.4154
 20
4.9251
 30
0.0
  0
VERTEX
  8
0
 10
4.6654
 20
4.9251
 30
0.0
  0
SEQEND
  0
POLYLINE
  8
0
  6
LINETYPE_2
 66
     1
 10
0.0
 20
0.0
 30
0.0
  0
VERTEX
  8
0
 10
4.8622
 20
4.9251
 30
0.0
  0
VERTEX
  8
0
 10
4.9872
 20
4.9001
 30
0.0
  0
VERTEX
  8
0
 10
4.9872
 20
4.9501
 30
0.0
  0
VERTEX
  8
0
 10
4.8622
 20
4.9251
 30
0.0
  0
VERTEX
  8
0
 10
4.8822
 20
4.9251
 30
0.0
  0
VERTEX
  8
0
 10
4.9822
 20
4.9051
 30
0.0
  0
VERTEX
  8
0
 10
4.9822
 20
4.9451
 30
0.0
  0
VERTEX
  8
0
 10
4.8822
 20
4.9251
 30
0.0
  0
VERTEX
  8
0
 10
4.9022
 20
4.9251
 30
0.0
  0
VERTEX
  8
0
 10
4.9772
 20
4.9101
 30
0.0
  0
VERTEX
  8
0
 10
4.9772
 20
4.9401
 30
0.0
  0
VERTEX
  8
0
 10
4.9072
 20
4.9251
 30
0.0
  0
VERTEX
  8
0
 10
4.9222
 20
4.9251
 30
0.0
  0
VERTEX
  8
0
 10
4.9722
 20
4.9151
 30
0.0
  0
VERTEX
  8
0
 10
4.9722
 20
4.9351
 30
0.0
  0
VERTEX
  8
0
 10
4.9272
 20
4.9251
 30
0.0
  0
VERTEX
  8
0
 10
4.9472
 20
4.9251
 30
0.0
  0
VERTEX
  8
0
 10
4.9672
 20
4.9201
 30
0.0
  0
VERTEX
  8
0
 10
4.9672
 20
4.9301
 30
0.0
  0
VERTEX
  8
0
 10
4.9472
 20
4.9251
 30
0.0
  0
SEQEND
  0
POLYLINE
  8
0
  6
LINETYPE_2
 66
     1
 10
0.0
 20
0.0
 30
0.0
  0
VERTEX
  8
0
 10
5.1122
 20
4.9251
 30
0.0
  0
VERTEX
  8
0
 10
4.8622
 20
4.9251
 30
0.0
  0
SEQEND
  0
TEXT
  8
0
 10
5.1742
 20
4.8562
 30
0.0
 40
0.1378
  1
5
 50
0.000000
  0
POLYLINE
  8
0
  6
LINETYPE_2
 66
     1
 10
0.0
 20
0.0
 30
0.0
  0
VERTEX
  8
0
 10
4.4685
 20
5.4537
 30
0.0
  0
VERTEX
  8
0
 10
4.4685
 20
4.6033
 30
0.0
  0
SEQEND
  0
POLYLINE
  8
0
  6
LINETYPE_2
 66
     1
 10
0.0
 20
0.0
 30
0.0
  0
VERTEX
  8
0
 10
4.8622
 20
5.06
 30
0.0
  0
VERTEX
  8
0
 10
4.8622
 20
4.6033
 30
0.0
  0
SEQEND
  0
POLYLINE
  8
0
  6
LINETYPE_2
 66
     1
 10
0.0
 20
0.0
 30
0.0
  0
VERTEX
  8
0
 10
4.4685
 20
4.7283
 30
0.0
  0
VERTEX
  8
0
 10
4.3435
 20
4.7533
 30
0.0
  0
VERTEX
  8
0
 10
4.3435
 20
4.7033
 30
0.0
  0
VERTEX
  8
0
 10
4.4685
 20
4.7283
 30
0.0
  0
VERTEX
  8
0
 10
4.4485
 20
4.7283
 30
0.0
  0
VERTEX
  8
0
 10
4.3485
 20
4.7483
 30
0.0
  0
VERTEX
  8
0
 10
4.3485
 20
4.7083
 30
0.0
  0
VERTEX
  8
0
 10
4.4485
 20
4.7283
 30
0.0
  0
VERTEX
  8
0
 10
4.4285
 20
4.7283
 30
0.0
  0
VERTEX
  8
0
 10
4.3535
 20
4.7433
 30
0.0
  0
VERTEX
  8
0
 10
4.3535
 20
4.7133
 30
0.0
  0
VERTEX
  8
0
 10
4.4235
 20
4.7283
 30
0.0
  0
VERTEX
  8
0
 10
4.4085
 20
4.7283
 30
0.0
  0
VERTEX
  8
0
 10
4.3585
 20
4.7383
 30
0.0
  0
VERTEX
  8
0
 10
4.3585
 20
4.7183
 30
0.0
  0
VERTEX
  8
0
 10
4.4035
 20
4.7283
 30
0.0
  0
VERTEX
  8
0
 10
4.3835
 20
4.7283
 30
0.0
  0
VERTEX
  8
0
 10
4.3635
 20
4.7333
 30
0.0
  0
VERTEX
  8
0
 10
4.3635
 20
4.7233
 30
0.0
  0
VERTEX
  8
0
 10
4.3835
 20
4.7283
 30
0.0
  0
SEQEND
  0
POLYLINE
  8
0
  6
LINETYPE_2
 66
     1
 10
0.0
 20
0.0
 30
0.0
  0
VERTEX
  8
0
 10
4.2185
 20
4.7283
 30
0.0
  0
VERTEX
  8
0
 10
4.4685
 20
4.7283
 30
0.0
  0
SEQEND
  0
POLYLINE
  8
0
  6
LINETYPE_2
 66
     1
 10
0.0
 20
0.0
 30
0.0
  0
VERTEX
  8
0
 10
4.8622
 20
4.7283
 30
0.0
  0
VERTEX
  8
0
 10
4.9872
 20
4.7033
 30
0.0
  0
VERTEX
  8
0
 10
4.9872
 20
4.7533
 30
0.0
  0
VERTEX
  8
0
 10
4.8622
 20
4.7283
 30
0.0
  0
VERTEX
  8
0
 10
4.8822
 20
4.7283
 30
0.0
  0
VERTEX
  8
0
 10
4.9822
 20
4.7083
 30
0.0
  0
VERTEX
  8
0
 10
4.9822
 20
4.7483
 30
0.0
  0
VERTEX
  8
0
 10
4.8822
 20
4.7283
 30
0.0
  0
VERTEX
  8
0
 10
4.9022
 20
4.7283
 30
0.0
  0
VERTEX
  8
0
 10
4.9772
 20
4.7133
 30
0.0
  0
VERTEX
  8
0
 10
4.9772
 20
4.7433
 30
0.0
  0
VERTEX
  8
0
 10
4.9072
 20
4.7283
 30
0.0
  0
VERTEX
  8
0
 10
4.9222
 20
4.7283
 30
0.0
  0
VERTEX
  8
0
 10
4.9722
 20
4.7183
 30
0.0
  0
VERTEX
  8
0
 10
4.9722
 20
4.7383
 30
0.0
  0
VERTEX
  8
0
 10
4.9272
 20
4.7283
 30
0.0
  0
VERTEX
  8
0
 10
4.9472
 20
4.7283
 30
0.0
  0
VERTEX
  8
0
 10
4.9672
 20
4.7233
 30
0.0
  0
VERTEX
  8
0
 10
4.9672
 20
4.7333
 30
0.0
  0
VERTEX
  8
0
 10
4.9472
 20
4.7283
 30
0.0
  0
SEQEND
  0
POLYLINE
  8
0
  6
LINETYPE_2
 66
     1
 10
0.0
 20
0.0
 30
0.0
  0
VERTEX
  8
0
 10
5.1122
 20
4.7283
 30
0.0
  0
VERTEX
  8
0
 10
4.8622
 20
4.7283
 30
0.0
  0
SEQEND
  0
TEXT
  8
0
 10
5.1742
 20
4.6594
 30
0.0
 40
0.1378
  1
10
 50
0.000000
  0
POLYLINE
  8
0
  6
LINETYPE_2
 66
     1
 10
0.0
 20
0.0
 30
0.0
  0
VERTEX
  8
0
 10
4.0748
 20
5.2568
 30
0.0
  0
VERTEX
  8
0
 10
4.0748
 20
4.4064
 30
0.0
  0
SEQEND
  0
POLYLINE
  8
0
  6
LINETYPE_2
 66
     1
 10
0.0
 20
0.0
 30
0.0
  0
VERTEX
  8
0
 10
4.8622
 20
5.06
 30
0.0
  0
VERTEX
  8
0
 10
4.8622
 20
4.4064
 30
0.0
  0
SEQEND
  0
POLYLINE
  8
0
  6
LINETYPE_2
 66
     1
 10
0.0
 20
0.0
 30
0.0
  0
VERTEX
  8
0
 10
4.0748
 20
4.5314
 30
0.0
  0
VERTEX
  8
0
 10
3.9498
 20
4.5564
 30
0.0
  0
VERTEX
  8
0
 10
3.9498
 20
4.5064
 30
0.0
  0
VERTEX
  8
0
 10
4.0748
 20
4.5314
 30
0.0
  0
VERTEX
  8
0
 10
4.0548
 20
4.5314
 30
0.0
  0
VERTEX
  8
0
 10
3.9548
 20
4.5514
 30
0.0
  0
VERTEX
  8
0
 10
3.9548
 20
4.5114
 30
0.0
  0
VERTEX
  8
0
 10
4.0548
 20
4.5314
 30
0.0
  0
VERTEX
  8
0
 10
4.0348
 20
4.5314
 30
0.0
  0
VERTEX
  8
0
 10
3.9598
 20
4.5464
 30
0.0
  0
VERTEX
  8
0
 10
3.9598
 20
4.5164
 30
0.0
  0
VERTEX
  8
0
 10
4.0298
 20
4.5314
 30
0.0
  0
VERTEX
  8
0
 10
4.0148
 20
4.5314
 30
0.0
  0
VERTEX
  8
0
 10
3.9648
 20
4.5414
 30
0.0
  0
VERTEX
  8
0
 10
3.9648
 20
4.5214
 30
0.0
  0
VERTEX
  8
0
 10
4.0098
 20
4.5314
 30
0.0
  0
VERTEX
  8
0
 10
3.9898
 20
4.5314
 30
0.0
  0
VERTEX
  8
0
 10
3.9698
 20
4.5364
 30
0.0
  0
VERTEX
  8
0
 10
3.9698
 20
4.5264
 30
0.0
  0
VERTEX
  8
0
 10
3.9898
 20
4.5314
 30
0.0
  0
SEQEND
  0
POLYLINE
  8
0
  6
LINETYPE_2
 66
     1
 10
0.0
 20
0.0
 30
0.0
  0
VERTEX
  8
0
 10
3.8248
 20
4.5314
 30
0.0
  0
VERTEX
  8
0
 10
4.0748
 20
4.5314
 30
0.0
  0
SEQEND
  0
POLYLINE
  8
0
  6
LINETYPE_2
 66
     1
 10
0.0
 20
0.0
 30
0.0
  0
VERTEX
  8
0
 10
4.8622
 20
4.5314
 30
0.0
  0
VERTEX
  8
0
 10
4.9872
 20
4.5064
 30
0.0
  0
VERTEX
  8
0
 10
4.9872
 20
4.5564
 30
0.0
  0
VERTEX
  8
0
 10
4.8622
 20
4.5314
 30
0.0
  0
VERTEX
  8
0
 10
4.8822
 20
4.5314
 30
0.0
  0
VERTEX
  8
0
 10
4.9822
 20
4.5114
 30
0.0
  0
VERTEX
  8
0
 10
4.9822
 20
4.5514
 30
0.0
  0
VERTEX
  8
0
 10
4.8822
 20
4.5314
 30
0.0
  0
VERTEX
  8
0
 10
4.9022
 20
4.5314
 30
0.0
  0
VERTEX
  8
0
 10
4.9772
 20
4.5164
 30
0.0
  0
VERTEX
  8
0
 10
4.9772
 20
4.5464
 30
0.0
  0
VERTEX
  8
0
 10
4.9072
 20
4.5314
 30
0.0
  0
VERTEX
  8
0
 10
4.9222
 20
4.5314
 30
0.0
  0
VERTEX
  8
0
 10
4.9722
 20
4.5214
 30
0.0
  0
VERTEX
  8
0
 10
4.9722
 20
4.5414
 30
0.0
  0
VERTEX
  8
0
 10
4.9272
 20
4.5314
 30
0.0
  0
VERTEX
  8
0
 10
4.9472
 20
4.5314
 30
0.0
  0
VERTEX
  8
0
 10
4.9672
 20
4.5264
 30
0.0
  0
VERTEX
  8
0
 10
4.9672
 20
4.5364
 30
0.0
  0
VERTEX
  8
0
 10
4.9472
 20
4.5314
 30
0.0
  0
SEQEND
  0
POLYLINE
  8
0
  6
LINETYPE_2
 66
     1
 10
0.0
 20
0.0
 30
0.0
  0
VERTEX
  8
0
 10
5.1122
 20
4.5314
 30
0.0
  0
VERTEX
  8
0
 10
4.8622
 20
4.5314
 30
0.0
  0
SEQEND
  0
TEXT
  8
0
 10
5.1742
 20
4.4625
 30
0.0
 40
0.1378
  1
20
 50
0.000000
  0
POLYLINE
  8
0
  6
LINETYPE_1
 66
     1
 70
     1
 10
0.0
 20
0.0
 30
0.0
  0
VERTEX
  8
0
 10
0.9252
 20
5.9094
 30
0.0
  0
VERTEX
  8
0
 10
1.3189
 20
5.9094
 30
0.0
  0
VERTEX
  8
0
 10
1.3189
 20
3.5472
 30
0.0
  0
VERTEX
  8
0
 10
0.9252
 20
3.5472
 30
0.0
  0
SEQEND
  0
ARC
  8
0
  6
LINETYPE_1
 10
1.122
 20
5.7027
 40
0.128004
 50
22.599210
 51
157.383580
  0
ARC
  8
0
  6
LINETYPE_1
 10
1.122
 20
5.25
 40
0.127973
 50
202.657748
 51
337.359487
  0
POLYLINE
  8
0
  6
LINETYPE_1
 66
     1
 10
0.0
 20
0.0
 30
0.0
  0
VERTEX
  8
0
 10
1.0039
 20
5.7519
 30
0.0
  0
VERTEX
  8
0
 10
1.0039
 20
5.2007
 30
0.0
  0
SEQEND
  0
POLYLINE
  8
0
  6
LINETYPE_1
 66
     1
 10
0.0
 20
0.0
 30
0.0
  0
VERTEX
  8
0
 10
1.2402
 20
5.7519
 30
0.0
  0
VERTEX
  8
0
 10
1.2402
 20
5.2007
 30
0.0
  0
SEQEND
  0
ARC
  8
0
  6
LINETYPE_1
 10
1.122
 20
3.7539
 40
0.128004
 50
202.616420
 51
337.400790
  0
ARC
  8
0
  6
LINETYPE_1
 10
1.1221
 20
4.2066
 40
0.127973
 50
22.657748
 51
157.359487
  0
POLYLINE
  8
0
  6
LINETYPE_1
 66
     1
 10
0.0
 20
0.0
 30
0.0
  0
VERTEX
  8
0
 10
1.0039
 20
4.2559
 30
0.0
  0
VERTEX
  8
0
 10
1.0039
 20
3.7047
 30
0.0
  0
SEQEND
  0
POLYLINE
  8
0
  6
LINETYPE_1
 66
     1
 10
0.0
 20
0.0
 30
0.0
  0
VERTEX
  8
0
 10
1.2402
 20
4.2559
 30
0.0
  0
VERTEX
  8
0
 10
1.2402
 20
3.7047
 30
0.0
  0
SEQEND
  0
POLYLINE
  8
0
  6
LINETYPE_1
 66
     1
 70
     1
 10
0.0
 20
0.0
 30
0.0
  0
VERTEX
  8
0
 10
1.9094
 20
5.9094
 30
0.0
  0
VERTEX
  8
0
 10
2.3031
 20
5.9094
 30
0.0
  0
VERTEX
  8
0
 10
2.3031
 20
3.5472
 30
0.0
  0
VERTEX
  8
0
 10
1.9094
 20
3.5472
 30
0.0
  0
SEQEND
  0
ARC
  8
0
  6
LINETYPE_1
 10
2.1062
 20
5.7027
 40
0.128004
 50
22.599210
 51
157.383580
  0
ARC
  8
0
  6
LINETYPE_1
 10
2.1062
 20
5.25
 40
0.127973
 50
202.657748
 51
337.359487
  0
POLYLINE
  8
0
  6
LINETYPE_1
 66
     1
 10
0.0
 20
0.0
 30
0.0
  0
VERTEX
  8
0
 10
1.9881
 20
5.7519
 30
0.0
  0
VERTEX
  8
0
 10
1.9881
 20
5.2007
 30
0.0
  0
SEQEND
  0
POLYLINE
  8
0
  6
LINETYPE_1
 66
     1
 10
0.0
 20
0.0
 30
0.0
  0
VERTEX
  8
0
 10
2.2244
 20
5.7519
 30
0.0
  0
VERTEX
  8
0
 10
2.2244
 20
5.2007
 30
0.0
  0
SEQEND
  0
POLYLINE
  8
0
  6
LINETYPE_2
 66
     1
 10
0.0
 20
0.0
 30
0.0
  0
VERTEX
  8
0
 10
0.8632
 20
3.5472
 30
0.0
  0
VERTEX
  8
0
 10
0.0915
 20
3.5472
 30
0.0
  0
SEQEND
  0
POLYLINE
  8
0
  6
LINETYPE_2
 66
     1
 10
0.0
 20
0.0
 30
0.0
  0
VERTEX
  8
0
 10
0.8632
 20
5.9094
 30
0.0
  0
VERTEX
  8
0
 10
0.0915
 20
5.9094
 30
0.0
  0
SEQEND
  0
POLYLINE
  8
0
  6
LINETYPE_2
 66
     1
 10
0.0
 20
0.0
 30
0.0
  0
VERTEX
  8
0
 10
0.2165
 20
3.5472
 30
0.0
  0
VERTEX
  8
0
 10
0.1915
 20
3.4222
 30
0.0
  0
VERTEX
  8
0
 10
0.2415
 20
3.4222
 30
0.0
  0
VERTEX
  8
0
 10
0.2165
 20
3.5472
 30
0.0
  0
VERTEX
  8
0
 10
0.2165
 20
3.5272
 30
0.0
  0
VERTEX
  8
0
 10
0.1965
 20
3.4272
 30
0.0
  0
VERTEX
  8
0
 10
0.2365
 20
3.4272
 30
0.0
  0
VERTEX
  8
0
 10
0.2165
 20
3.5272
 30
0.0
  0
VERTEX
  8
0
 10
0.2165
 20
3.5072
 30
0.0
  0
VERTEX
  8
0
 10
0.2015
 20
3.4322
 30
0.0
  0
VERTEX
  8
0
 10
0.2315
 20
3.4322
 30
0.0
  0
VERTEX
  8
0
 10
0.2165
 20
3.5022
 30
0.0
  0
VERTEX
  8
0
 10
0.2165
 20
3.4872
 30
0.0
  0
VERTEX
  8
0
 10
0.2065
 20
3.4372
 30
0.0
  0
VERTEX
  8
0
 10
0.2265
 20
3.4372
 30
0.0
  0
VERTEX
  8
0
 10
0.2165
 20
3.4822
 30
0.0
  0
VERTEX
  8
0
 10
0.2165
 20
3.4622
 30
0.0
  0
VERTEX
  8
0
 10
0.2115
 20
3.4422
 30
0.0
  0
VERTEX
  8
0
 10
0.2215
 20
3.4422
 30
0.0
  0
VERTEX
  8
0
 10
0.2165
 20
3.4622
 30
0.0
  0
SEQEND
  0
POLYLINE
  8
0
  6
LINETYPE_2
 66
     1
 10
0.0
 20
0.0
 30
0.0
  0
VERTEX
  8
0
 10
0.2165
 20
3.2972
 30
0.0
  0
VERTEX
  8
0
 10
0.2165
 20
3.5472
 30
0.0
  0
SEQEND
  0
POLYLINE
  8
0
  6
LINETYPE_2
 66
     1
 10
0.0
 20
0.0
 30
0.0
  0
VERTEX
  8
0
 10
0.2165
 20
5.9094
 30
0.0
  0
VERTEX
  8
0
 10
0.2415
 20
6.0344
 30
0.0
  0
VERTEX
  8
0
 10
0.1915
 20
6.0344
 30
0.0
  0
VERTEX
  8
0
 10
0.2165
 20
5.9094
 30
0.0
  0
VERTEX
  8
0
 10
0.2165
 20
5.9294
 30
0.0
  0
VERTEX
  8
0
 10
0.2365
 20
6.0294
 30
0.0
  0
VERTEX
  8
0
 10
0.1965
 20
6.0294
 30
0.0
  0
VERTEX
  8
0
 10
0.2165
 20
5.9294
 30
0.0
  0
VERTEX
  8
0
 10
0.2165
 20
5.9494
 30
0.0
  0
VERTEX
  8
0
 10
0.2315
 20
6.0244
 30
0.0
  0
VERTEX
  8
0
 10
0.2015
 20
6.0244
 30
0.0
  0
VERTEX
  8
0
 10
0.2165
 20
5.9544
 30
0.0
  0
VERTEX
  8
0
 10
0.2165
 20
5.9694
 30
0.0
  0
VERTEX
  8
0
 10
0.2265
 20
6.0194
 30
0.0
  0
VERTEX
  8
0
 10
0.2065
 20
6.0194
 30
0.0
  0
VERTEX
  8
0
 10
0.2165
 20
5.9744
 30
0.0
  0
VERTEX
  8
0
 10
0.2165
 20
5.9944
 30
0.0
  0
VERTEX
  8
0
 10
0.2215
 20
6.0144
 30
0.0
  0
VERTEX
  8
0
 10
0.2115
 20
6.0144
 30
0.0
  0
VERTEX
  8
0
 10
0.2165
 20
5.9944
 30
0.0
  0
SEQEND
  0
POLYLINE
  8
0
  6
LINETYPE_2
 66
     1
 10
0.0
 20
0.0
 30
0.0
  0
VERTEX
  8
0
 10
0.2165
 20
6.1594
 30
0.0
  0
VERTEX
  8
0
 10
0.2165
 20
5.9094
 30
0.0
  0
SEQEND
  0
TEXT
  8
0
 10
0.2854
 20
2.9596
 30
0.0
 40
0.1378
  1
60
 50
90.000000
  0
POLYLINE
  8
0
  6
LINETYPE_2
 66
     1
 10
0.0
 20
0.0
 30
0.0
  0
VERTEX
  8
0
 10
1.06
 20
3.5472
 30
0.0
  0
VERTEX
  8
0
 10
0.3278
 20
3.5472
 30
0.0
  0
SEQEND
  0
POLYLINE
  8
0
  6
LINETYPE_2
 66
     1
 10
0.0
 20
0.0
 30
0.0
  0
VERTEX
  8
0
 10
1.06
 20
3.6259
 30
0.0
  0
VERTEX
  8
0
 10
0.3278
 20
3.6259
 30
0.0
  0
SEQEND
  0
POLYLINE
  8
0
  6
LINETYPE_2
 66
     1
 10
0.0
 20
0.0
 30
0.0
  0
VERTEX
  8
0
 10
0.4528
 20
3.5472
 30
0.0
  0
VERTEX
  8
0
 10
0.4278
 20
3.4222
 30
0.0
  0
VERTEX
  8
0
 10
0.4778
 20
3.4222
 30
0.0
  0
VERTEX
  8
0
 10
0.4528
 20
3.5472
 30
0.0
  0
VERTEX
  8
0
 10
0.4528
 20
3.5272
 30
0.0
  0
VERTEX
  8
0
 10
0.4328
 20
3.4272
 30
0.0
  0
VERTEX
  8
0
 10
0.4728
 20
3.4272
 30
0.0
  0
VERTEX
  8
0
 10
0.4528
 20
3.5272
 30
0.0
  0
VERTEX
  8
0
 10
0.4528
 20
3.5072
 30
0.0
  0
VERTEX
  8
0
 10
0.4378
 20
3.4322
 30
0.0
  0
VERTEX
  8
0
 10
0.4678
 20
3.4322
 30
0.0
  0
VERTEX
  8
0
 10
0.4528
 20
3.5022
 30
0.0
  0
VERTEX
  8
0
 10
0.4528
 20
3.4872
 30
0.0
  0
VERTEX
  8
0
 10
0.4428
 20
3.4372
 30
0.0
  0
VERTEX
  8
0
 10
0.4628
 20
3.4372
 30
0.0
  0
VERTEX
  8
0
 10
0.4528
 20
3.4822
 30
0.0
  0
VERTEX
  8
0
 10
0.4528
 20
3.4622
 30
0.0
  0
VERTEX
  8
0
 10
0.4478
 20
3.4422
 30
0.0
  0
VERTEX
  8
0
 10
0.4578
 20
3.4422
 30
0.0
  0
VERTEX
  8
0
 10
0.4528
 20
3.4622
 30
0.0
  0
SEQEND
  0
POLYLINE
  8
0
  6
LINETYPE_2
 66
     1
 10
0.0
 20
0.0
 30
0.0
  0
VERTEX
  8
0
 10
0.4528
 20
3.2972
 30
0.0
  0
VERTEX
  8
0
 10
0.4528
 20
3.5472
 30
0.0
  0
SEQEND
  0
POLYLINE
  8
0
  6
LINETYPE_2
 66
     1
 10
0.0
 20
0.0
 30
0.0
  0
VERTEX
  8
0
 10
0.4528
 20
3.6259
 30
0.0
  0
VERTEX
  8
0
 10
0.4778
 20
3.7509
 30
0.0
  0
VERTEX
  8
0
 10
0.4278
 20
3.7509
 30
0.0
  0
VERTEX
  8
0
 10
0.4528
 20
3.6259
 30
0.0
  0
VERTEX
  8
0
 10
0.4528
 20
3.6459
 30
0.0
  0
VERTEX
  8
0
 10
0.4728
 20
3.7459
 30
0.0
  0
VERTEX
  8
0
 10
0.4328
 20
3.7459
 30
0.0
  0
VERTEX
  8
0
 10
0.4528
 20
3.6459
 30
0.0
  0
VERTEX
  8
0
 10
0.4528
 20
3.6659
 30
0.0
  0
VERTEX
  8
0
 10
0.4678
 20
3.7409
 30
0.0
  0
VERTEX
  8
0
 10
0.4378
 20
3.7409
 30
0.0
  0
VERTEX
  8
0
 10
0.4528
 20
3.6709
 30
0.0
  0
VERTEX
  8
0
 10
0.4528
 20
3.6859
 30
0.0
  0
VERTEX
  8
0
 10
0.4628
 20
3.7359
 30
0.0
  0
VERTEX
  8
0
 10
0.4428
 20
3.7359
 30
0.0
  0
VERTEX
  8
0
 10
0.4528
 20
3.6909
 30
0.0
  0
VERTEX
  8
0
 10
0.4528
 20
3.7109
 30
0.0
  0
VERTEX
  8
0
 10
0.4578
 20
3.7309
 30
0.0
  0
VERTEX
  8
0
 10
0.4478
 20
3.7309
 30
0.0
  0
VERTEX
  8
0
 10
0.4528
 20
3.7109
 30
0.0
  0
SEQEND
  0
POLYLINE
  8
0
  6
LINETYPE_2
 66
     1
 10
0.0
 20
0.0
 30
0.0
  0
VERTEX
  8
0
 10
0.4528
 20
3.8759
 30
0.0
  0
VERTEX
  8
0
 10
0.4528
 20
3.6259
 30
0.0
  0
SEQEND
  0
TEXT
  8
0
 10
0.5217
 20
3.0974
 30
0.0
 40
0.1378
  1
2
 50
90.000000
  0
POLYLINE
  8
0
  6
LINETYPE_2
 66
     1
 10
0.0
 20
0.0
 30
0.0
  0
VERTEX
  8
0
 10
1.06
 20
3.6259
 30
0.0
  0
VERTEX
  8
0
 10
0.5246
 20
3.6259
 30
0.0
  0
SEQEND
  0
POLYLINE
  8
0
  6
LINETYPE_2
 66
     1
 10
0.0
 20
0.0
 30
0.0
  0
VERTEX
  8
0
 10
1.06
 20
4.3346
 30
0.0
  0
VERTEX
  8
0
 10
0.5246
 20
4.3346
 30
0.0
  0
SEQEND
  0
POLYLINE
  8
0
  6
LINETYPE_2
 66
     1
 10
0.0
 20
0.0
 30
0.0
  0
VERTEX
  8
0
 10
0.6496
 20
3.6259
 30
0.0
  0
VERTEX
  8
0
 10
0.6246
 20
3.5009
 30
0.0
  0
VERTEX
  8
0
 10
0.6746
 20
3.5009
 30
0.0
  0
VERTEX
  8
0
 10
0.6496
 20
3.6259
 30
0.0
  0
VERTEX
  8
0
 10
0.6496
 20
3.6059
 30
0.0
  0
VERTEX
  8
0
 10
0.6296
 20
3.5059
 30
0.0
  0
VERTEX
  8
0
 10
0.6696
 20
3.5059
 30
0.0
  0
VERTEX
  8
0
 10
0.6496
 20
3.6059
 30
0.0
  0
VERTEX
  8
0
 10
0.6496
 20
3.5859
 30
0.0
  0
VERTEX
  8
0
 10
0.6346
 20
3.5109
 30
0.0
  0
VERTEX
  8
0
 10
0.6646
 20
3.5109
 30
0.0
  0
VERTEX
  8
0
 10
0.6496
 20
3.5809
 30
0.0
  0
VERTEX
  8
0
 10
0.6496
 20
3.5659
 30
0.0
  0
VERTEX
  8
0
 10
0.6396
 20
3.5159
 30
0.0
  0
VERTEX
  8
0
 10
0.6596
 20
3.5159
 30
0.0
  0
VERTEX
  8
0
 10
0.6496
 20
3.5609
 30
0.0
  0
VERTEX
  8
0
 10
0.6496
 20
3.5409
 30
0.0
  0
VERTEX
  8
0
 10
0.6446
 20
3.5209
 30
0.0
  0
VERTEX
  8
0
 10
0.6546
 20
3.5209
 30
0.0
  0
VERTEX
  8
0
 10
0.6496
 20
3.5409
 30
0.0
  0
SEQEND
  0
POLYLINE
  8
0
  6
LINETYPE_2
 66
     1
 10
0.0
 20
0.0
 30
0.0
  0
VERTEX
  8
0
 10
0.6496
 20
3.3759
 30
0.0
  0
VERTEX
  8
0
 10
0.6496
 20
3.6259
 30
0.0
  0
SEQEND
  0
POLYLINE
  8
0
  6
LINETYPE_2
 66
     1
 10
0.0
 20
0.0
 30
0.0
  0
VERTEX
  8
0
 10
0.6496
 20
4.3346
 30
0.0
  0
VERTEX
  8
0
 10
0.6746
 20
4.4596
 30
0.0
  0
VERTEX
  8
0
 10
0.6246
 20
4.4596
 30
0.0
  0
VERTEX
  8
0
 10
0.6496
 20
4.3346
 30
0.0
  0
VERTEX
  8
0
 10
0.6496
 20
4.3546
 30
0.0
  0
VERTEX
  8
0
 10
0.6696
 20
4.4546
 30
0.0
  0
VERTEX
  8
0
 10
0.6296
 20
4.4546
 30
0.0
  0
VERTEX
  8
0
 10
0.6496
 20
4.3546
 30
0.0
  0
VERTEX
  8
0
 10
0.6496
 20
4.3746
 30
0.0
  0
VERTEX
  8
0
 10
0.6646
 20
4.4496
 30
0.0
  0
VERTEX
  8
0
 10
0.6346
 20
4.4496
 30
0.0
  0
VERTEX
  8
0
 10
0.6496
 20
4.3796
 30
0.0
  0
VERTEX
  8
0
 10
0.6496
 20
4.3946
 30
0.0
  0
VERTEX
  8
0
 10
0.6596
 20
4.4446
 30
0.0
  0
VERTEX
  8
0
 10
0.6396
 20
4.4446
 30
0.0
  0
VERTEX
  8
0
 10
0.6496
 20
4.3996
 30
0.0
  0
VERTEX
  8
0
 10
0.6496
 20
4.4196
 30
0.0
  0
VERTEX
  8
0
 10
0.6546
 20
4.4396
 30
0.0
  0
VERTEX
  8
0
 10
0.6446
 20
4.4396
 30
0.0
  0
VERTEX
  8
0
 10
0.6496
 20
4.4196
 30
0.0
  0
SEQEND
  0
POLYLINE
  8
0
  6
LINETYPE_2
 66
     1
 10
0.0
 20
0.0
 30
0.0
  0
VERTEX
  8
0
 10
0.6496
 20
4.5846
 30
0.0
  0
VERTEX
  8
0
 10
0.6496
 20
4.3346
 30
0.0
  0
SEQEND
  0
TEXT
  8
0
 10
0.7185
 20
3.0427
 30
0.0
 40
0.1378
  1
18
 50
90.000000
  0
POLYLINE
  8
0
  6
LINETYPE_2
 66
     1
 10
0.0
 20
0.0
 30
0.0
  0
VERTEX
  8
0
 10
1.06
 20
5.8307
 30
0.0
  0
VERTEX
  8
0
 10
0.2096
 20
5.8307
 30
0.0
  0
SEQEND
  0
POLYLINE
  8
0
  6
LINETYPE_2
 66
     1
 10
0.0
 20
0.0
 30
0.0
  0
VERTEX
  8
0
 10
1.06
 20
5.9094
 30
0.0
  0
VERTEX
  8
0
 10
0.2096
 20
5.9094
 30
0.0
  0
SEQEND
  0
POLYLINE
  8
0
  6
LINETYPE_2
 66
     1
 10
0.0
 20
0.0
 30
0.0
  0
VERTEX
  8
0
 10
0.3346
 20
5.8307
 30
0.0
  0
VERTEX
  8
0
 10
0.3096
 20
5.7057
 30
0.0
  0
VERTEX
  8
0
 10
0.3596
 20
5.7057
 30
0.0
  0
VERTEX
  8
0
 10
0.3346
 20
5.8307
 30
0.0
  0
VERTEX
  8
0
 10
0.3346
 20
5.8107
 30
0.0
  0
VERTEX
  8
0
 10
0.3146
 20
5.7107
 30
0.0
  0
VERTEX
  8
0
 10
0.3546
 20
5.7107
 30
0.0
  0
VERTEX
  8
0
 10
0.3346
 20
5.8107
 30
0.0
  0
VERTEX
  8
0
 10
0.3346
 20
5.7907
 30
0.0
  0
VERTEX
  8
0
 10
0.3196
 20
5.7157
 30
0.0
  0
VERTEX
  8
0
 10
0.3496
 20
5.7157
 30
0.0
  0
VERTEX
  8
0
 10
0.3346
 20
5.7857
 30
0.0
  0
VERTEX
  8
0
 10
0.3346
 20
5.7707
 30
0.0
  0
VERTEX
  8
0
 10
0.3246
 20
5.7207
 30
0.0
  0
VERTEX
  8
0
 10
0.3446
 20
5.7207
 30
0.0
  0
VERTEX
  8
0
 10
0.3346
 20
5.7657
 30
0.0
  0
VERTEX
  8
0
 10
0.3346
 20
5.7457
 30
0.0
  0
VERTEX
  8
0
 10
0.3296
 20
5.7257
 30
0.0
  0
VERTEX
  8
0
 10
0.3396
 20
5.7257
 30
0.0
  0
VERTEX
  8
0
 10
0.3346
 20
5.7457
 30
0.0
  0
SEQEND
  0
POLYLINE
  8
0
  6
LINETYPE_2
 66
     1
 10
0.0
 20
0.0
 30
0.0
  0
VERTEX
  8
0
 10
0.3346
 20
5.5807
 30
0.0
  0
VERTEX
  8
0
 10
0.3346
 20
5.8307
 30
0.0
  0
SEQEND
  0
POLYLINE
  8
0
  6
LINETYPE_2
 66
     1
 10
0.0
 20
0.0
 30
0.0
  0
VERTEX
  8
0
 10
0.3346
 20
5.9094
 30
0.0
  0
VERTEX
  8
0
 10
0.3596
 20
6.0344
 30
0.0
  0
VERTEX
  8
0
 10
0.3096
 20
6.0344
 30
0.0
  0
VERTEX
  8
0
 10
0.3346
 20
5.9094
 30
0.0
  0
VERTEX
  8
0
 10
0.3346
 20
5.9294
 30
0.0
  0
VERTEX
  8
0
 10
0.3546
 20
6.0294
 30
0.0
  0
VERTEX
  8
0
 10
0.3146
 20
6.0294
 30
0.0
  0
VERTEX
  8
0
 10
0.3346
 20
5.9294
 30
0.0
  0
VERTEX
  8
0
 10
0.3346
 20
5.9494
 30
0.0
  0
VERTEX
  8
0
 10
0.3496
 20
6.0244
 30
0.0
  0
VERTEX
  8
0
 10
0.3196
 20
6.0244
 30
0.0
  0
VERTEX
  8
0
 10
0.3346
 20
5.9544
 30
0.0
  0
VERTEX
  8
0
 10
0.3346
 20
5.9694
 30
0.0
  0
VERTEX
  8
0
 10
0.3446
 20
6.0194
 30
0.0
  0
VERTEX
  8
0
 10
0.3246
 20
6.0194
 30
0.0
  0
VERTEX
  8
0
 10
0.3346
 20
5.9744
 30
0.0
  0
VERTEX
  8
0
 10
0.3346
 20
5.9944
 30
0.0
  0
VERTEX
  8
0
 10
0.3396
 20
6.0144
 30
0.0
  0
VERTEX
  8
0
 10
0.3296
 20
6.0144
 30
0.0
  0
VERTEX
  8
0
 10
0.3346
 20
5.9944
 30
0.0
  0
SEQEND
  0
POLYLINE
  8
0
  6
LINETYPE_2
 66
     1
 10
0.0
 20
0.0
 30
0.0
  0
VERTEX
  8
0
 10
0.3346
 20
6.2509
 30
0.0
  0
VERTEX
  8
0
 10
0.3346
 20
5.9094
 30
0.0
  0
SEQEND
  0
TEXT
  8
0
 10
0.4035
 20
6.3129
 30
0.0
 40
0.1378
  1
2
 50
90.000000
  0
POLYLINE
  8
0
  6
LINETYPE_2
 66
     1
 10
0.0
 20
0.0
 30
0.0
  0
VERTEX
  8
0
 10
1.06
 20
5.122
 30
0.0
  0
VERTEX
  8
0
 10
0.4065
 20
5.122
 30
0.0
  0
SEQEND
  0
POLYLINE
  8
0
  6
LINETYPE_2
 66
     1
 10
0.0
 20
0.0
 30
0.0
  0
VERTEX
  8
0
 10
1.06
 20
5.8307
 30
0.0
  0
VERTEX
  8
0
 10
0.4065
 20
5.8307
 30
0.0
  0
SEQEND
  0
POLYLINE
  8
0
  6
LINETYPE_2
 66
     1
 10
0.0
 20
0.0
 30
0.0
  0
VERTEX
  8
0
 10
0.5315
 20
5.122
 30
0.0
  0
VERTEX
  8
0
 10
0.5065
 20
4.997
 30
0.0
  0
VERTEX
  8
0
 10
0.5565
 20
4.997
 30
0.0
  0
VERTEX
  8
0
 10
0.5315
 20
5.122
 30
0.0
  0
VERTEX
  8
0
 10
0.5315
 20
5.102
 30
0.0
  0
VERTEX
  8
0
 10
0.5115
 20
5.002
 30
0.0
  0
VERTEX
  8
0
 10
0.5515
 20
5.002
 30
0.0
  0
VERTEX
  8
0
 10
0.5315
 20
5.102
 30
0.0
  0
VERTEX
  8
0
 10
0.5315
 20
5.082
 30
0.0
  0
VERTEX
  8
0
 10
0.5165
 20
5.007
 30
0.0
  0
VERTEX
  8
0
 10
0.5465
 20
5.007
 30
0.0
  0
VERTEX
  8
0
 10
0.5315
 20
5.077
 30
0.0
  0
VERTEX
  8
0
 10
0.5315
 20
5.062
 30
0.0
  0
VERTEX
  8
0
 10
0.5215
 20
5.012
 30
0.0
  0
VERTEX
  8
0
 10
0.5415
 20
5.012
 30
0.0
  0
VERTEX
  8
0
 10
0.5315
 20
5.057
 30
0.0
  0
VERTEX
  8
0
 10
0.5315
 20
5.037
 30
0.0
  0
VERTEX
  8
0
 10
0.5265
 20
5.017
 30
0.0
  0
VERTEX
  8
0
 10
0.5365
 20
5.017
 30
0.0
  0
VERTEX
  8
0
 10
0.5315
 20
5.037
 30
0.0
  0
SEQEND
  0
POLYLINE
  8
0
  6
LINETYPE_2
 66
     1
 10
0.0
 20
0.0
 30
0.0
  0
VERTEX
  8
0
 10
0.5315
 20
4.872
 30
0.0
  0
VERTEX
  8
0
 10
0.5315
 20
5.122
 30
0.0
  0
SEQEND
  0
POLYLINE
  8
0
  6
LINETYPE_2
 66
     1
 10
0.0
 20
0.0
 30
0.0
  0
VERTEX
  8
0
 10
0.5315
 20
5.8307
 30
0.0
  0
VERTEX
  8
0
 10
0.5565
 20
5.9557
 30
0.0
  0
VERTEX
  8
0
 10
0.5065
 20
5.9557
 30
0.0
  0
VERTEX
  8
0
 10
0.5315
 20
5.8307
 30
0.0
  0
VERTEX
  8
0
 10
0.5315
 20
5.8507
 30
0.0
  0
VERTEX
  8
0
 10
0.5515
 20
5.9507
 30
0.0
  0
VERTEX
  8
0
 10
0.5115
 20
5.9507
 30
0.0
  0
VERTEX
  8
0
 10
0.5315
 20
5.8507
 30
0.0
  0
VERTEX
  8
0
 10
0.5315
 20
5.8707
 30
0.0
  0
VERTEX
  8
0
 10
0.5465
 20
5.9457
 30
0.0
  0
VERTEX
  8
0
 10
0.5165
 20
5.9457
 30
0.0
  0
VERTEX
  8
0
 10
0.5315
 20
5.8757
 30
0.0
  0
VERTEX
  8
0
 10
0.5315
 20
5.8907
 30
0.0
  0
VERTEX
  8
0
 10
0.5415
 20
5.9407
 30
0.0
  0
VERTEX
  8
0
 10
0.5215
 20
5.9407
 30
0.0
  0
VERTEX
  8
0
 10
0.5315
 20
5.8957
 30
0.0
  0
VERTEX
  8
0
 10
0.5315
 20
5.9157
 30
0.0
  0
VERTEX
  8
0
 10
0.5365
 20
5.9357
 30
0.0
  0
VERTEX
  8
0
 10
0.5265
 20
5.9357
 30
0.0
  0
VERTEX
  8
0
 10
0.5315
 20
5.9157
 30
0.0
  0
SEQEND
  0
POLYLINE
  8
0
  6
LINETYPE_2
 66
     1
 10
0.0
 20
0.0
 30
0.0
  0
VERTEX
  8
0
 10
0.5315
 20
6.0807
 30
0.0
  0
VERTEX
  8
0
 10
0.5315
 20
5.8307
 30
0.0
  0
SEQEND
  0
TEXT
  8
0
 10
0.6004
 20
6.1427
 30
0.0
 40
0.1378
  1
18
 50
90.000000
  0
POLYLINE
  8
0
  6
LINETYPE_2
 66
     1
 10
0.0
 20
0.0
 30
0.0
  0
VERTEX
  8
0
 10
0.9252
 20
5.9714
 30
0.0
  0
VERTEX
  8
0
 10
0.9252
 20
6.5068
 30
0.0
  0
SEQEND
  0
POLYLINE
  8
0
  6
LINETYPE_2
 66
     1
 10
0.0
 20
0.0
 30
0.0
  0
VERTEX
  8
0
 10
1.3189
 20
5.9714
 30
0.0
  0
VERTEX
  8
0
 10
1.3189
 20
6.5068
 30
0.0
  0
SEQEND
  0
POLYLINE
  8
0
  6
LINETYPE_2
 66
     1
 10
0.0
 20
0.0
 30
0.0
  0
VERTEX
  8
0
 10
0.9252
 20
6.3818
 30
0.0
  0
VERTEX
  8
0
 10
0.8002
 20
6.4068
 30
0.0
  0
VERTEX
  8
0
 10
0.8002
 20
6.3568
 30
0.0
  0
VERTEX
  8
0
 10
0.9252
 20
6.3818
 30
0.0
  0
VERTEX
  8
0
 10
0.9052
 20
6.3818
 30
0.0
  0
VERTEX
  8
0
 10
0.8052
 20
6.4018
 30
0.0
  0
VERTEX
  8
0
 10
0.8052
 20
6.3618
 30
0.0
  0
VERTEX
  8
0
 10
0.9052
 20
6.3818
 30
0.0
  0
VERTEX
  8
0
 10
0.8852
 20
6.3818
 30
0.0
  0
VERTEX
  8
0
 10
0.8102
 20
6.3968
 30
0.0
  0
VERTEX
  8
0
 10
0.8102
 20
6.3668
 30
0.0
  0
VERTEX
  8
0
 10
0.8802
 20
6.3818
 30
0.0
  0
VERTEX
  8
0
 10
0.8652
 20
6.3818
 30
0.0
  0
VERTEX
  8
0
 10
0.8152
 20
6.3918
 30
0.0
  0
VERTEX
  8
0
 10
0.8152
 20
6.3718
 30
0.0
  0
VERTEX
  8
0
 10
0.8602
 20
6.3818
 30
0.0
  0
VERTEX
  8
0
 10
0.8402
 20
6.3818
 30
0.0
  0
VERTEX
  8
0
 10
0.8202
 20
6.3868
 30
0.0
  0
VERTEX
  8
0
 10
0.8202
 20
6.3768
 30
0.0
  0
VERTEX
  8
0
 10
0.8402
 20
6.3818
 30
0.0
  0
SEQEND
  0
POLYLINE
  8
0
  6
LINETYPE_2
 66
     1
 10
0.0
 20
0.0
 30
0.0
  0
VERTEX
  8
0
 10
0.6752
 20
6.3818
 30
0.0
  0
VERTEX
  8
0
 10
0.9252
 20
6.3818
 30
0.0
  0
SEQEND
  0
POLYLINE
  8
0
  6
LINETYPE_2
 66
     1
 10
0.0
 20
0.0
 30
0.0
  0
VERTEX
  8
0
 10
1.3189
 20
6.3818
 30
0.0
  0
VERTEX
  8
0
 10
1.4439
 20
6.3568
 30
0.0
  0
VERTEX
  8
0
 10
1.4439
 20
6.4068
 30
0.0
  0
VERTEX
  8
0
 10
1.3189
 20
6.3818
 30
0.0
  0
VERTEX
  8
0
 10
1.3389
 20
6.3818
 30
0.0
  0
VERTEX
  8
0
 10
1.4389
 20
6.3618
 30
0.0
  0
VERTEX
  8
0
 10
1.4389
 20
6.4018
 30
0.0
  0
VERTEX
  8
0
 10
1.3389
 20
6.3818
 30
0.0
  0
VERTEX
  8
0
 10
1.3589
 20
6.3818
 30
0.0
  0
VERTEX
  8
0
 10
1.4339
 20
6.3668
 30
0.0
  0
VERTEX
  8
0
 10
1.4339
 20
6.3968
 30
0.0
  0
VERTEX
  8
0
 10
1.3639
 20
6.3818
 30
0.0
  0
VERTEX
  8
0
 10
1.3789
 20
6.3818
 30
0.0
  0
VERTEX
  8
0
 10
1.4289
 20
6.3718
 30
0.0
  0
VERTEX
  8
0
 10
1.4289
 20
6.3918
 30
0.0
  0
VERTEX
  8
0
 10
1.3839
 20
6.3818
 30
0.0
  0
VERTEX
  8
0
 10
1.4039
 20
6.3818
 30
0.0
  0
VERTEX
  8
0
 10
1.4239
 20
6.3768
 30
0.0
  0
VERTEX
  8
0
 10
1.4239
 20
6.3868
 30
0.0
  0
VERTEX
  8
0
 10
1.4039
 20
6.3818
 30
0.0
  0
SEQEND
  0
POLYLINE
  8
0
  6
LINETYPE_2
 66
     1
 10
0.0
 20
0.0
 30
0.0
  0
VERTEX
  8
0
 10
1.5689
 20
6.3818
 30
0.0
  0
VERTEX
  8
0
 10
1.3189
 20
6.3818
 30
0.0
  0
SEQEND
  0
TEXT
  8
0
 10
1.6309
 20
6.3129
 30
0.0
 40
0.1378
  1
10
 50
0.000000
  0
POLYLINE
  8
0
  6
LINETYPE_2
 66
     1
 10
0.0
 20
0.0
 30
0.0
  0
VERTEX
  8
0
 10
1.0039
 20
5.7352
 30
0.0
  0
VERTEX
  8
0
 10
1.0039
 20
6.3494
 30
0.0
  0
SEQEND
  0
POLYLINE
  8
0
  6
LINETYPE_2
 66
     1
 10
0.0
 20
0.0
 30
0.0
  0
VERTEX
  8
0
 10
1.2402
 20
5.7352
 30
0.0
  0
VERTEX
  8
0
 10
1.2402
 20
6.3494
 30
0.0
  0
SEQEND
  0
POLYLINE
  8
0
  6
LINETYPE_2
 66
     1
 10
0.0
 20
0.0
 30
0.0
  0
VERTEX
  8
0
 10
1.0039
 20
6.2244
 30
0.0
  0
VERTEX
  8
0
 10
0.8789
 20
6.2494
 30
0.0
  0
VERTEX
  8
0
 10
0.8789
 20
6.1994
 30
0.0
  0
VERTEX
  8
0
 10
1.0039
 20
6.2244
 30
0.0
  0
VERTEX
  8
0
 10
0.9839
 20
6.2244
 30
0.0
  0
VERTEX
  8
0
 10
0.8839
 20
6.2444
 30
0.0
  0
VERTEX
  8
0
 10
0.8839
 20
6.2044
 30
0.0
  0
VERTEX
  8
0
 10
0.9839
 20
6.2244
 30
0.0
  0
VERTEX
  8
0
 10
0.9639
 20
6.2244
 30
0.0
  0
VERTEX
  8
0
 10
0.8889
 20
6.2394
 30
0.0
  0
VERTEX
  8
0
 10
0.8889
 20
6.2094
 30
0.0
  0
VERTEX
  8
0
 10
0.9589
 20
6.2244
 30
0.0
  0
VERTEX
  8
0
 10
0.9439
 20
6.2244
 30
0.0
  0
VERTEX
  8
0
 10
0.8939
 20
6.2344
 30
0.0
  0
VERTEX
  8
0
 10
0.8939
 20
6.2144
 30
0.0
  0
VERTEX
  8
0
 10
0.9389
 20
6.2244
 30
0.0
  0
VERTEX
  8
0
 10
0.9189
 20
6.2244
 30
0.0
  0
VERTEX
  8
0
 10
0.8989
 20
6.2294
 30
0.0
  0
VERTEX
  8
0
 10
0.8989
 20
6.2194
 30
0.0
  0
VERTEX
  8
0
 10
0.9189
 20
6.2244
 30
0.0
  0
SEQEND
  0
POLYLINE
  8
0
  6
LINETYPE_2
 66
     1
 10
0.0
 20
0.0
 30
0.0
  0
VERTEX
  8
0
 10
0.7539
 20
6.2244
 30
0.0
  0
VERTEX
  8
0
 10
1.0039
 20
6.2244
 30
0.0
  0
SEQEND
  0
POLYLINE
  8
0
  6
LINETYPE_2
 66
     1
 10
0.0
 20
0.0
 30
0.0
  0
VERTEX
  8
0
 10
1.2402
 20
6.2244
 30
0.0
  0
VERTEX
  8
0
 10
1.3652
 20
6.1994
 30
0.0
  0
VERTEX
  8
0
 10
1.3652
 20
6.2494
 30
0.0
  0
VERTEX
  8
0
 10
1.2402
 20
6.2244
 30
0.0
  0
VERTEX
  8
0
 10
1.2602
 20
6.2244
 30
0.0
  0
VERTEX
  8
0
 10
1.3602
 20
6.2044
 30
0.0
  0
VERTEX
  8
0
 10
1.3602
 20
6.2444
 30
0.0
  0
VERTEX
  8
0
 10
1.2602
 20
6.2244
 30
0.0
  0
VERTEX
  8
0
 10
1.2802
 20
6.2244
 30
0.0
  0
VERTEX
  8
0
 10
1.3552
 20
6.2094
 30
0.0
  0
VERTEX
  8
0
 10
1.3552
 20
6.2394
 30
0.0
  0
VERTEX
  8
0
 10
1.2852
 20
6.2244
 30
0.0
  0
VERTEX
  8
0
 10
1.3002
 20
6.2244
 30
0.0
  0
VERTEX
  8
0
 10
1.3502
 20
6.2144
 30
0.0
  0
VERTEX
  8
0
 10
1.3502
 20
6.2344
 30
0.0
  0
VERTEX
  8
0
 10
1.3052
 20
6.2244
 30
0.0
  0
VERTEX
  8
0
 10
1.3252
 20
6.2244
 30
0.0
  0
VERTEX
  8
0
 10
1.3452
 20
6.2194
 30
0.0
  0
VERTEX
  8
0
 10
1.3452
 20
6.2294
 30
0.0
  0
VERTEX
  8
0
 10
1.3252
 20
6.2244
 30
0.0
  0
SEQEND
  0
POLYLINE
  8
0
  6
LINETYPE_2
 66
     1
 10
0.0
 20
0.0
 30
0.0
  0
VERTEX
  8
0
 10
1.4902
 20
6.2244
 30
0.0
  0
VERTEX
  8
0
 10
1.2402
 20
6.2244
 30
0.0
  0
SEQEND
  0
TEXT
  8
0
 10
1.5522
 20
6.1555
 30
0.0
 40
0.1378
  1
6
 50
0.000000
  0
POLYLINE
  8
0
  6
LINETYPE_2
 66
     1
 10
0.0
 20
0.0
 30
0.0
  0
VERTEX
  8
0
 10
1.2402
 20
5.7352
 30
0.0
  0
VERTEX
  8
0
 10
1.2402
 20
6.1919
 30
0.0
  0
SEQEND
  0
POLYLINE
  8
0
  6
LINETYPE_2
 66
     1
 10
0.0
 20
0.0
 30
0.0
  0
VERTEX
  8
0
 10
1.3189
 20
5.7352
 30
0.0
  0
VERTEX
  8
0
 10
1.3189
 20
6.1919
 30
0.0
  0
SEQEND
  0
POLYLINE
  8
0
  6
LINETYPE_2
 66
     1
 10
0.0
 20
0.0
 30
0.0
  0
VERTEX
  8
0
 10
1.2402
 20
6.0669
 30
0.0
  0
VERTEX
  8
0
 10
1.1152
 20
6.0919
 30
0.0
  0
VERTEX
  8
0
 10
1.1152
 20
6.0419
 30
0.0
  0
VERTEX
  8
0
 10
1.2402
 20
6.0669
 30
0.0
  0
VERTEX
  8
0
 10
1.2202
 20
6.0669
 30
0.0
  0
VERTEX
  8
0
 10
1.1202
 20
6.0869
 30
0.0
  0
VERTEX
  8
0
 10
1.1202
 20
6.0469
 30
0.0
  0
VERTEX
  8
0
 10
1.2202
 20
6.0669
 30
0.0
  0
VERTEX
  8
0
 10
1.2002
 20
6.0669
 30
0.0
  0
VERTEX
  8
0
 10
1.1252
 20
6.0819
 30
0.0
  0
VERTEX
  8
0
 10
1.1252
 20
6.0519
 30
0.0
  0
VERTEX
  8
0
 10
1.1952
 20
6.0669
 30
0.0
  0
VERTEX
  8
0
 10
1.1802
 20
6.0669
 30
0.0
  0
VERTEX
  8
0
 10
1.1302
 20
6.0769
 30
0.0
  0
VERTEX
  8
0
 10
1.1302
 20
6.0569
 30
0.0
  0
VERTEX
  8
0
 10
1.1752
 20
6.0669
 30
0.0
  0
VERTEX
  8
0
 10
1.1552
 20
6.0669
 30
0.0
  0
VERTEX
  8
0
 10
1.1352
 20
6.0719
 30
0.0
  0
VERTEX
  8
0
 10
1.1352
 20
6.0619
 30
0.0
  0
VERTEX
  8
0
 10
1.1552
 20
6.0669
 30
0.0
  0
SEQEND
  0
POLYLINE
  8
0
  6
LINETYPE_2
 66
     1
 10
0.0
 20
0.0
 30
0.0
  0
VERTEX
  8
0
 10
0.9902
 20
6.0669
 30
0.0
  0
VERTEX
  8
0
 10
1.2402
 20
6.0669
 30
0.0
  0
SEQEND
  0
POLYLINE
  8
0
  6
LINETYPE_2
 66
     1
 10
0.0
 20
0.0
 30
0.0
  0
VERTEX
  8
0
 10
1.3189
 20
6.0669
 30
0.0
  0
VERTEX
  8
0
 10
1.4439
 20
6.0419
 30
0.0
  0
VERTEX
  8
0
 10
1.4439
 20
6.0919
 30
0.0
  0
VERTEX
  8
0
 10
1.3189
 20
6.0669
 30
0.0
  0
VERTEX
  8
0
 10
1.3389
 20
6.0669
 30
0.0
  0
VERTEX
  8
0
 10
1.4389
 20
6.0469
 30
0.0
  0
VERTEX
  8
0
 10
1.4389
 20
6.0869
 30
0.0
  0
VERTEX
  8
0
 10
1.3389
 20
6.0669
 30
0.0
  0
VERTEX
  8
0
 10
1.3589
 20
6.0669
 30
0.0
  0
VERTEX
  8
0
 10
1.4339
 20
6.0519
 30
0.0
  0
VERTEX
  8
0
 10
1.4339
 20
6.0819
 30
0.0
  0
VERTEX
  8
0
 10
1.3639
 20
6.0669
 30
0.0
  0
VERTEX
  8
0
 10
1.3789
 20
6.0669
 30
0.0
  0
VERTEX
  8
0
 10
1.4289
 20
6.0569
 30
0.0
  0
VERTEX
  8
0
 10
1.4289
 20
6.0769
 30
0.0
  0
VERTEX
  8
0
 10
1.3839
 20
6.0669
 30
0.0
  0
VERTEX
  8
0
 10
1.4039
 20
6.0669
 30
0.0
  0
VERTEX
  8
0
 10
1.4239
 20
6.0619
 30
0.0
  0
VERTEX
  8
0
 10
1.4239
 20
6.0719
 30
0.0
  0
VERTEX
  8
0
 10
1.4039
 20
6.0669
 30
0.0
  0
SEQEND
  0
POLYLINE
  8
0
  6
LINETYPE_2
 66
     1
 10
0.0
 20
0.0
 30
0.0
  0
VERTEX
  8
0
 10
1.5689
 20
6.0669
 30
0.0
  0
VERTEX
  8
0
 10
1.3189
 20
6.0669
 30
0.0
  0
SEQEND
  0
TEXT
  8
0
 10
1.6309
 20
5.998
 30
0.0
 40
0.1378
  1
2
 50
0.000000
  0
POLYLINE
  8
0
  6
LINETYPE_2
 66
     1
 10
0.0
 20
0.0
 30
0.0
  0
VERTEX
  8
0
 10
0.9252
 20
5.7352
 30
0.0
  0
VERTEX
  8
0
 10
0.9252
 20
6.6643
 30
0.0
  0
SEQEND
  0
POLYLINE
  8
0
  6
LINETYPE_2
 66
     1
 10
0.0
 20
0.0
 30
0.0
  0
VERTEX
  8
0
 10
1.0039
 20
5.7352
 30
0.0
  0
VERTEX
  8
0
 10
1.0039
 20
6.6643
 30
0.0
  0
SEQEND
  0
POLYLINE
  8
0
  6
LINETYPE_2
 66
     1
 10
0.0
 20
0.0
 30
0.0
  0
VERTEX
  8
0
 10
0.9252
 20
6.5393
 30
0.0
  0
VERTEX
  8
0
 10
0.8002
 20
6.5643
 30
0.0
  0
VERTEX
  8
0
 10
0.8002
 20
6.5143
 30
0.0
  0
VERTEX
  8
0
 10
0.9252
 20
6.5393
 30
0.0
  0
VERTEX
  8
0
 10
0.9052
 20
6.5393
 30
0.0
  0
VERTEX
  8
0
 10
0.8052
 20
6.5593
 30
0.0
  0
VERTEX
  8
0
 10
0.8052
 20
6.5193
 30
0.0
  0
VERTEX
  8
0
 10
0.9052
 20
6.5393
 30
0.0
  0
VERTEX
  8
0
 10
0.8852
 20
6.5393
 30
0.0
  0
VERTEX
  8
0
 10
0.8102
 20
6.5543
 30
0.0
  0
VERTEX
  8
0
 10
0.8102
 20
6.5243
 30
0.0
  0
VERTEX
  8
0
 10
0.8802
 20
6.5393
 30
0.0
  0
VERTEX
  8
0
 10
0.8652
 20
6.5393
 30
0.0
  0
VERTEX
  8
0
 10
0.8152
 20
6.5493
 30
0.0
  0
VERTEX
  8
0
 10
0.8152
 20
6.5293
 30
0.0
  0
VERTEX
  8
0
 10
0.8602
 20
6.5393
 30
0.0
  0
VERTEX
  8
0
 10
0.8402
 20
6.5393
 30
0.0
  0
VERTEX
  8
0
 10
0.8202
 20
6.5443
 30
0.0
  0
VERTEX
  8
0
 10
0.8202
 20
6.5343
 30
0.0
  0
VERTEX
  8
0
 10
0.8402
 20
6.5393
 30
0.0
  0
SEQEND
  0
POLYLINE
  8
0
  6
LINETYPE_2
 66
     1
 10
0.0
 20
0.0
 30
0.0
  0
VERTEX
  8
0
 10
0.6752
 20
6.5393
 30
0.0
  0
VERTEX
  8
0
 10
0.9252
 20
6.5393
 30
0.0
  0
SEQEND
  0
POLYLINE
  8
0
  6
LINETYPE_2
 66
     1
 10
0.0
 20
0.0
 30
0.0
  0
VERTEX
  8
0
 10
1.0039
 20
6.5393
 30
0.0
  0
VERTEX
  8
0
 10
1.1289
 20
6.5143
 30
0.0
  0
VERTEX
  8
0
 10
1.1289
 20
6.5643
 30
0.0
  0
VERTEX
  8
0
 10
1.0039
 20
6.5393
 30
0.0
  0
VERTEX
  8
0
 10
1.0239
 20
6.5393
 30
0.0
  0
VERTEX
  8
0
 10
1.1239
 20
6.5193
 30
0.0
  0
VERTEX
  8
0
 10
1.1239
 20
6.5593
 30
0.0
  0
VERTEX
  8
0
 10
1.0239
 20
6.5393
 30
0.0
  0
VERTEX
  8
0
 10
1.0439
 20
6.5393
 30
0.0
  0
VERTEX
  8
0
 10
1.1189
 20
6.5243
 30
0.0
  0
VERTEX
  8
0
 10
1.1189
 20
6.5543
 30
0.0
  0
VERTEX
  8
0
 10
1.0489
 20
6.5393
 30
0.0
  0
VERTEX
  8
0
 10
1.0639
 20
6.5393
 30
0.0
  0
VERTEX
  8
0
 10
1.1139
 20
6.5293
 30
0.0
  0
VERTEX
  8
0
 10
1.1139
 20
6.5493
 30
0.0
  0
VERTEX
  8
0
 10
1.0689
 20
6.5393
 30
0.0
  0
VERTEX
  8
0
 10
1.0889
 20
6.5393
 30
0.0
  0
VERTEX
  8
0
 10
1.1089
 20
6.5343
 30
0.0
  0
VERTEX
  8
0
 10
1.1089
 20
6.5443
 30
0.0
  0
VERTEX
  8
0
 10
1.0889
 20
6.5393
 30
0.0
  0
SEQEND
  0
POLYLINE
  8
0
  6
LINETYPE_2
 66
     1
 10
0.0
 20
0.0
 30
0.0
  0
VERTEX
  8
0
 10
1.2539
 20
6.5393
 30
0.0
  0
VERTEX
  8
0
 10
1.0039
 20
6.5393
 30
0.0
  0
SEQEND
  0
TEXT
  8
0
 10
0.4754
 20
6.4704
 30
0.0
 40
0.1378
  1
2
 50
0.000000
  0
POLYLINE
  8
0
  6
LINETYPE_1
 66
     1
 70
     1
 10
0.0
 20
0.0
 30
0.0
  0
VERTEX
  8
0
 10
3.2874
 20
3.5472
 30
0.0
  0
VERTEX
  8
0
 10
4.4685
 20
3.5472
 30
0.0
  0
VERTEX
  8
0
 10
4.4685
 20
3.1535
 30
0.0
  0
VERTEX
  8
0
 10
3.2874
 20
3.1535
 30
0.0
  0
SEQEND
  0
POLYLINE
  8
0
  6
LINETYPE_1
 66
     1
 70
     1
 10
0.0
 20
0.0
 30
0.0
  0
VERTEX
  8
0
 10
3.4843
 20
3.3503
 30
0.0
  0
VERTEX
  8
0
 10
3.4843
 20
3.3503
 30
0.0
  0
VERTEX
  8
0
 10
3.4843
 20
3.3503
 30
0.0
  0
VERTEX
  8
0
 10
3.4843
 20
3.3503
 30
0.0
  0
SEQEND
  0
POLYLINE
  8
0
  6
LINETYPE_1
 66
     1
 70
     1
 10
0.0
 20
0.0
 30
0.0
  0
VERTEX
  8
0
 10
4.2717
 20
3.3503
 30
0.0
  0
VERTEX
  8
0
 10
4.2717
 20
3.3503
 30
0.0
  0
VERTEX
  8
0
 10
4.2717
 20
3.3503
 30
0.0
  0
VERTEX
  8
0
 10
4.2717
 20
3.3503
 30
0.0
  0
SEQEND
  0
POLYLINE
  8
0
  6
LINETYPE_1
 66
     1
 70
     1
 10
0.0
 20
0.0
 30
0.0
  0
VERTEX
  8
0
 10
4.0748
 20
3.4685
 30
0.0
  0
VERTEX
  8
0
 10
4.0748
 20
3.4685
 30
0.0
  0
VERTEX
  8
0
 10
4.0748
 20
3.4685
 30
0.0
  0
VERTEX
  8
0
 10
4.0748
 20
3.4685
 30
0.0
  0
SEQEND
  0
POLYLINE
  8
0
  6
LINETYPE_1
 66
     1
 70
     1
 10
0.0
 20
0.0
 30
0.0
  0
VERTEX
  8
0
 10
3.878
 20
3.3503
 30
0.0
  0
VERTEX
  8
0
 10
3.878
 20
3.3503
 30
0.0
  0
VERTEX
  8
0
 10
3.878
 20
3.3503
 30
0.0
  0
VERTEX
  8
0
 10
3.878
 20
3.3503
 30
0.0
  0
SEQEND
  0
POLYLINE
  8
0
  6
LINETYPE_2
 66
     1
 10
0.0
 20
0.0
 30
0.0
  0
VERTEX
  8
0
 10
3.2254
 20
3.1535
 30
0.0
  0
VERTEX
  8
0
 10
3.0049
 20
3.1535
 30
0.0
  0
SEQEND
  0
POLYLINE
  8
0
  6
LINETYPE_2
 66
     1
 10
0.0
 20
0.0
 30
0.0
  0
VERTEX
  8
0
 10
3.4223
 20
3.3503
 30
0.0
  0
VERTEX
  8
0
 10
3.0049
 20
3.3503
 30
0.0
  0
SEQEND
  0
POLYLINE
  8
0
  6
LINETYPE_2
 66
     1
 10
0.0
 20
0.0
 30
0.0
  0
VERTEX
  8
0
 10
3.1299
 20
3.1535
 30
0.0
  0
VERTEX
  8
0
 10
3.1049
 20
3.0285
 30
0.0
  0
VERTEX
  8
0
 10
3.1549
 20
3.0285
 30
0.0
  0
VERTEX
  8
0
 10
3.1299
 20
3.1535
 30
0.0
  0
VERTEX
  8
0
 10
3.1299
 20
3.1335
 30
0.0
  0
VERTEX
  8
0
 10
3.1099
 20
3.0335
 30
0.0
  0
VERTEX
  8
0
 10
3.1499
 20
3.0335
 30
0.0
  0
VERTEX
  8
0
 10
3.1299
 20
3.1335
 30
0.0
  0
VERTEX
  8
0
 10
3.1299
 20
3.1135
 30
0.0
  0
VERTEX
  8
0
 10
3.1149
 20
3.0385
 30
0.0
  0
VERTEX
  8
0
 10
3.1449
 20
3.0385
 30
0.0
  0
VERTEX
  8
0
 10
3.1299
 20
3.1085
 30
0.0
  0
VERTEX
  8
0
 10
3.1299
 20
3.0935
 30
0.0
  0
VERTEX
  8
0
 10
3.1199
 20
3.0435
 30
0.0
  0
VERTEX
  8
0
 10
3.1399
 20
3.0435
 30
0.0
  0
VERTEX
  8
0
 10
3.1299
 20
3.0885
 30
0.0
  0
VERTEX
  8
0
 10
3.1299
 20
3.0685
 30
0.0
  0
VERTEX
  8
0
 10
3.1249
 20
3.0485
 30
0.0
  0
VERTEX
  8
0
 10
3.1349
 20
3.0485
 30
0.0
  0
VERTEX
  8
0
 10
3.1299
 20
3.0685
 30
0.0
  0
SEQEND
  0
POLYLINE
  8
0
  6
LINETYPE_2
 66
     1
 10
0.0
 20
0.0
 30
0.0
  0
VERTEX
  8
0
 10
3.1299
 20
2.9035
 30
0.0
  0
VERTEX
  8
0
 10
3.1299
 20
3.1535
 30
0.0
  0
SEQEND
  0
POLYLINE
  8
0
  6
LINETYPE_2
 66
     1
 10
0.0
 20
0.0
 30
0.0
  0
VERTEX
  8
0
 10
3.1299
 20
3.3503
 30
0.0
  0
VERTEX
  8
0
 10
3.1549
 20
3.4753
 30
0.0
  0
VERTEX
  8
0
 10
3.1049
 20
3.4753
 30
0.0
  0
VERTEX
  8
0
 10
3.1299
 20
3.3503
 30
0.0
  0
VERTEX
  8
0
 10
3.1299
 20
3.3703
 30
0.0
  0
VERTEX
  8
0
 10
3.1499
 20
3.4703
 30
0.0
  0
VERTEX
  8
0
 10
3.1099
 20
3.4703
 30
0.0
  0
VERTEX
  8
0
 10
3.1299
 20
3.3703
 30
0.0
  0
VERTEX
  8
0
 10
3.1299
 20
3.3903
 30
0.0
  0
VERTEX
  8
0
 10
3.1449
 20
3.4653
 30
0.0
  0
VERTEX
  8
0
 10
3.1149
 20
3.4653
 30
0.0
  0
VERTEX
  8
0
 10
3.1299
 20
3.3953
 30
0.0
  0
VERTEX
  8
0
 10
3.1299
 20
3.4103
 30
0.0
  0
VERTEX
  8
0
 10
3.1399
 20
3.4603
 30
0.0
  0
VERTEX
  8
0
 10
3.1199
 20
3.4603
 30
0.0
  0
VERTEX
  8
0
 10
3.1299
 20
3.4153
 30
0.0
  0
VERTEX
  8
0
 10
3.1299
 20
3.4353
 30
0.0
  0
VERTEX
  8
0
 10
3.1349
 20
3.4553
 30
0.0
  0
VERTEX
  8
0
 10
3.1249
 20
3.4553
 30
0.0
  0
VERTEX
  8
0
 10
3.1299
 20
3.4353
 30
0.0
  0
SEQEND
  0
POLYLINE
  8
0
  6
LINETYPE_2
 66
     1
 10
0.0
 20
0.0
 30
0.0
  0
VERTEX
  8
0
 10
3.1299
 20
3.6003
 30
0.0
  0
VERTEX
  8
0
 10
3.1299
 20
3.3503
 30
0.0
  0
SEQEND
  0
TEXT
  8
0
 10
3.1988
 20
3.6623
 30
0.0
 40
0.1378
  1
5
 50
90.000000
  0
POLYLINE
  8
0
  6
LINETYPE_2
 66
     1
 10
0.0
 20
0.0
 30
0.0
  0
VERTEX
  8
0
 10
4.3337
 20
3.1535
 30
0.0
  0
VERTEX
  8
0
 10
5.1447
 20
3.1535
 30
0.0
  0
SEQEND
  0
POLYLINE
  8
0
  6
LINETYPE_2
 66
     1
 10
0.0
 20
0.0
 30
0.0
  0
VERTEX
  8
0
 10
4.3337
 20
3.3503
 30
0.0
  0
VERTEX
  8
0
 10
5.1447
 20
3.3503
 30
0.0
  0
SEQEND
  0
POLYLINE
  8
0
  6
LINETYPE_2
 66
     1
 10
0.0
 20
0.0
 30
0.0
  0
VERTEX
  8
0
 10
5.0197
 20
3.1535
 30
0.0
  0
VERTEX
  8
0
 10
4.9947
 20
3.0285
 30
0.0
  0
VERTEX
  8
0
 10
5.0447
 20
3.0285
 30
0.0
  0
VERTEX
  8
0
 10
5.0197
 20
3.1535
 30
0.0
  0
VERTEX
  8
0
 10
5.0197
 20
3.1335
 30
0.0
  0
VERTEX
  8
0
 10
4.9997
 20
3.0335
 30
0.0
  0
VERTEX
  8
0
 10
5.0397
 20
3.0335
 30
0.0
  0
VERTEX
  8
0
 10
5.0197
 20
3.1335
 30
0.0
  0
VERTEX
  8
0
 10
5.0197
 20
3.1135
 30
0.0
  0
VERTEX
  8
0
 10
5.0047
 20
3.0385
 30
0.0
  0
VERTEX
  8
0
 10
5.0347
 20
3.0385
 30
0.0
  0
VERTEX
  8
0
 10
5.0197
 20
3.1085
 30
0.0
  0
VERTEX
  8
0
 10
5.0197
 20
3.0935
 30
0.0
  0
VERTEX
  8
0
 10
5.0097
 20
3.0435
 30
0.0
  0
VERTEX
  8
0
 10
5.0297
 20
3.0435
 30
0.0
  0
VERTEX
  8
0
 10
5.0197
 20
3.0885
 30
0.0
  0
VERTEX
  8
0
 10
5.0197
 20
3.0685
 30
0.0
  0
VERTEX
  8
0
 10
5.0147
 20
3.0485
 30
0.0
  0
VERTEX
  8
0
 10
5.0247
 20
3.0485
 30
0.0
  0
VERTEX
  8
0
 10
5.0197
 20
3.0685
 30
0.0
  0
SEQEND
  0
POLYLINE
  8
0
  6
LINETYPE_2
 66
     1
 10
0.0
 20
0.0
 30
0.0
  0
VERTEX
  8
0
 10
5.0197
 20
2.9035
 30
0.0
  0
VERTEX
  8
0
 10
5.0197
 20
3.1535
 30
0.0
  0
SEQEND
  0
POLYLINE
  8
0
  6
LINETYPE_2
 66
     1
 10
0.0
 20
0.0
 30
0.0
  0
VERTEX
  8
0
 10
5.0197
 20
3.3503
 30
0.0
  0
VERTEX
  8
0
 10
5.0447
 20
3.4753
 30
0.0
  0
VERTEX
  8
0
 10
4.9947
 20
3.4753
 30
0.0
  0
VERTEX
  8
0
 10
5.0197
 20
3.3503
 30
0.0
  0
VERTEX
  8
0
 10
5.0197
 20
3.3703
 30
0.0
  0
VERTEX
  8
0
 10
5.0397
 20
3.4703
 30
0.0
  0
VERTEX
  8
0
 10
4.9997
 20
3.4703
 30
0.0
  0
VERTEX
  8
0
 10
5.0197
 20
3.3703
 30
0.0
  0
VERTEX
  8
0
 10
5.0197
 20
3.3903
 30
0.0
  0
VERTEX
  8
0
 10
5.0347
 20
3.4653
 30
0.0
  0
VERTEX
  8
0
 10
5.0047
 20
3.4653
 30
0.0
  0
VERTEX
  8
0
 10
5.0197
 20
3.3953
 30
0.0
  0
VERTEX
  8
0
 10
5.0197
 20
3.4103
 30
0.0
  0
VERTEX
  8
0
 10
5.0297
 20
3.4603
 30
0.0
  0
VERTEX
  8
0
 10
5.0097
 20
3.4603
 30
0.0
  0
VERTEX
  8
0
 10
5.0197
 20
3.4153
 30
0.0
  0
VERTEX
  8
0
 10
5.0197
 20
3.4353
 30
0.0
  0
VERTEX
  8
0
 10
5.0247
 20
3.4553
 30
0.0
  0
VERTEX
  8
0
 10
5.0147
 20
3.4553
 30
0.0
  0
VERTEX
  8
0
 10
5.0197
 20
3.4353
 30
0.0
  0
SEQEND
  0
POLYLINE
  8
0
  6
LINETYPE_2
 66
     1
 10
0.0
 20
0.0
 30
0.0
  0
VERTEX
  8
0
 10
5.0197
 20
3.6003
 30
0.0
  0
VERTEX
  8
0
 10
5.0197
 20
3.3503
 30
0.0
  0
SEQEND
  0
TEXT
  8
0
 10
5.0886
 20
2.7037
 30
0.0
 40
0.1378
  1
5
 50
90.000000
  0
POLYLINE
  8
0
  6
LINETYPE_2
 66
     1
 10
0.0
 20
0.0
 30
0.0
  0
VERTEX
  8
0
 10
4.0974
 20
3.1535
 30
0.0
  0
VERTEX
  8
0
 10
4.7904
 20
3.1535
 30
0.0
  0
SEQEND
  0
POLYLINE
  8
0
  6
LINETYPE_2
 66
     1
 10
0.0
 20
0.0
 30
0.0
  0
VERTEX
  8
0
 10
4.1368
 20
3.4685
 30
0.0
  0
VERTEX
  8
0
 10
4.7904
 20
3.4685
 30
0.0
  0
SEQEND
  0
POLYLINE
  8
0
  6
LINETYPE_2
 66
     1
 10
0.0
 20
0.0
 30
0.0
  0
VERTEX
  8
0
 10
4.6654
 20
3.1535
 30
0.0
  0
VERTEX
  8
0
 10
4.6404
 20
3.0285
 30
0.0
  0
VERTEX
  8
0
 10
4.6904
 20
3.0285
 30
0.0
  0
VERTEX
  8
0
 10
4.6654
 20
3.1535
 30
0.0
  0
VERTEX
  8
0
 10
4.6654
 20
3.1335
 30
0.0
  0
VERTEX
  8
0
 10
4.6454
 20
3.0335
 30
0.0
  0
VERTEX
  8
0
 10
4.6854
 20
3.0335
 30
0.0
  0
VERTEX
  8
0
 10
4.6654
 20
3.1335
 30
0.0
  0
VERTEX
  8
0
 10
4.6654
 20
3.1135
 30
0.0
  0
VERTEX
  8
0
 10
4.6504
 20
3.0385
 30
0.0
  0
VERTEX
  8
0
 10
4.6804
 20
3.0385
 30
0.0
  0
VERTEX
  8
0
 10
4.6654
 20
3.1085
 30
0.0
  0
VERTEX
  8
0
 10
4.6654
 20
3.0935
 30
0.0
  0
VERTEX
  8
0
 10
4.6554
 20
3.0435
 30
0.0
  0
VERTEX
  8
0
 10
4.6754
 20
3.0435
 30
0.0
  0
VERTEX
  8
0
 10
4.6654
 20
3.0885
 30
0.0
  0
VERTEX
  8
0
 10
4.6654
 20
3.0685
 30
0.0
  0
VERTEX
  8
0
 10
4.6604
 20
3.0485
 30
0.0
  0
VERTEX
  8
0
 10
4.6704
 20
3.0485
 30
0.0
  0
VERTEX
  8
0
 10
4.6654
 20
3.0685
 30
0.0
  0
SEQEND
  0
POLYLINE
  8
0
  6
LINETYPE_2
 66
     1
 10
0.0
 20
0.0
 30
0.0
  0
VERTEX
  8
0
 10
4.6654
 20
2.9035
 30
0.0
  0
VERTEX
  8
0
 10
4.6654
 20
3.1535
 30
0.0
  0
SEQEND
  0
POLYLINE
  8
0
  6
LINETYPE_2
 66
     1
 10
0.0
 20
0.0
 30
0.0
  0
VERTEX
  8
0
 10
4.6654
 20
3.4685
 30
0.0
  0
VERTEX
  8
0
 10
4.6904
 20
3.5935
 30
0.0
  0
VERTEX
  8
0
 10
4.6404
 20
3.5935
 30
0.0
  0
VERTEX
  8
0
 10
4.6654
 20
3.4685
 30
0.0
  0
VERTEX
  8
0
 10
4.6654
 20
3.4885
 30
0.0
  0
VERTEX
  8
0
 10
4.6854
 20
3.5885
 30
0.0
  0
VERTEX
  8
0
 10
4.6454
 20
3.5885
 30
0.0
  0
VERTEX
  8
0
 10
4.6654
 20
3.4885
 30
0.0
  0
VERTEX
  8
0
 10
4.6654
 20
3.5085
 30
0.0
  0
VERTEX
  8
0
 10
4.6804
 20
3.5835
 30
0.0
  0
VERTEX
  8
0
 10
4.6504
 20
3.5835
 30
0.0
  0
VERTEX
  8
0
 10
4.6654
 20
3.5135
 30
0.0
  0
VERTEX
  8
0
 10
4.6654
 20
3.5285
 30
0.0
  0
VERTEX
  8
0
 10
4.6754
 20
3.5785
 30
0.0
  0
VERTEX
  8
0
 10
4.6554
 20
3.5785
 30
0.0
  0
VERTEX
  8
0
 10
4.6654
 20
3.5335
 30
0.0
  0
VERTEX
  8
0
 10
4.6654
 20
3.5535
 30
0.0
  0
VERTEX
  8
0
 10
4.6704
 20
3.5735
 30
0.0
  0
VERTEX
  8
0
 10
4.6604
 20
3.5735
 30
0.0
  0
VERTEX
  8
0
 10
4.6654
 20
3.5535
 30
0.0
  0
SEQEND
  0
POLYLINE
  8
0
  6
LINETYPE_2
 66
     1
 10
0.0
 20
0.0
 30
0.0
  0
VERTEX
  8
0
 10
4.6654
 20
3.7185
 30
0.0
  0
VERTEX
  8
0
 10
4.6654
 20
3.4685
 30
0.0
  0
SEQEND
  0
TEXT
  8
0
 10
4.7343
 20
3.7805
 30
0.0
 40
0.1378
  1
8
 50
90.000000
  0
POLYLINE
  8
0
  6
LINETYPE_2
 66
     1
 10
0.0
 20
0.0
 30
0.0
  0
VERTEX
  8
0
 10
3.2254
 20
3.1535
 30
0.0
  0
VERTEX
  8
0
 10
2.7293
 20
3.1535
 30
0.0
  0
SEQEND
  0
POLYLINE
  8
0
  6
LINETYPE_2
 66
     1
 10
0.0
 20
0.0
 30
0.0
  0
VERTEX
  8
0
 10
3.2254
 20
3.5472
 30
0.0
  0
VERTEX
  8
0
 10
2.7293
 20
3.5472
 30
0.0
  0
SEQEND
  0
POLYLINE
  8
0
  6
LINETYPE_2
 66
     1
 10
0.0
 20
0.0
 30
0.0
  0
VERTEX
  8
0
 10
2.8543
 20
3.1535
 30
0.0
  0
VERTEX
  8
0
 10
2.8293
 20
3.0285
 30
0.0
  0
VERTEX
  8
0
 10
2.8793
 20
3.0285
 30
0.0
  0
VERTEX
  8
0
 10
2.8543
 20
3.1535
 30
0.0
  0
VERTEX
  8
0
 10
2.8543
 20
3.1335
 30
0.0
  0
VERTEX
  8
0
 10
2.8343
 20
3.0335
 30
0.0
  0
VERTEX
  8
0
 10
2.8743
 20
3.0335
 30
0.0
  0
VERTEX
  8
0
 10
2.8543
 20
3.1335
 30
0.0
  0
VERTEX
  8
0
 10
2.8543
 20
3.1135
 30
0.0
  0
VERTEX
  8
0
 10
2.8393
 20
3.0385
 30
0.0
  0
VERTEX
  8
0
 10
2.8693
 20
3.0385
 30
0.0
  0
VERTEX
  8
0
 10
2.8543
 20
3.1085
 30
0.0
  0
VERTEX
  8
0
 10
2.8543
 20
3.0935
 30
0.0
  0
VERTEX
  8
0
 10
2.8443
 20
3.0435
 30
0.0
  0
VERTEX
  8
0
 10
2.8643
 20
3.0435
 30
0.0
  0
VERTEX
  8
0
 10
2.8543
 20
3.0885
 30
0.0
  0
VERTEX
  8
0
 10
2.8543
 20
3.0685
 30
0.0
  0
VERTEX
  8
0
 10
2.8493
 20
3.0485
 30
0.0
  0
VERTEX
  8
0
 10
2.8593
 20
3.0485
 30
0.0
  0
VERTEX
  8
0
 10
2.8543
 20
3.0685
 30
0.0
  0
SEQEND
  0
POLYLINE
  8
0
  6
LINETYPE_2
 66
     1
 10
0.0
 20
0.0
 30
0.0
  0
VERTEX
  8
0
 10
2.8543
 20
2.9035
 30
0.0
  0
VERTEX
  8
0
 10
2.8543
 20
3.1535
 30
0.0
  0
SEQEND
  0
POLYLINE
  8
0
  6
LINETYPE_2
 66
     1
 10
0.0
 20
0.0
 30
0.0
  0
VERTEX
  8
0
 10
2.8543
 20
3.5472
 30
0.0
  0
VERTEX
  8
0
 10
2.8793
 20
3.6722
 30
0.0
  0
VERTEX
  8
0
 10
2.8293
 20
3.6722
 30
0.0
  0
VERTEX
  8
0
 10
2.8543
 20
3.5472
 30
0.0
  0
VERTEX
  8
0
 10
2.8543
 20
3.5672
 30
0.0
  0
VERTEX
  8
0
 10
2.8743
 20
3.6672
 30
0.0
  0
VERTEX
  8
0
 10
2.8343
 20
3.6672
 30
0.0
  0
VERTEX
  8
0
 10
2.8543
 20
3.5672
 30
0.0
  0
VERTEX
  8
0
 10
2.8543
 20
3.5872
 30
0.0
  0
VERTEX
  8
0
 10
2.8693
 20
3.6622
 30
0.0
  0
VERTEX
  8
0
 10
2.8393
 20
3.6622
 30
0.0
  0
VERTEX
  8
0
 10
2.8543
 20
3.5922
 30
0.0
  0
VERTEX
  8
0
 10
2.8543
 20
3.6072
 30
0.0
  0
VERTEX
  8
0
 10
2.8643
 20
3.6572
 30
0.0
  0
VERTEX
  8
0
 10
2.8443
 20
3.6572
 30
0.0
  0
VERTEX
  8
0
 10
2.8543
 20
3.6122
 30
0.0
  0
VERTEX
  8
0
 10
2.8543
 20
3.6322
 30
0.0
  0
VERTEX
  8
0
 10
2.8593
 20
3.6522
 30
0.0
  0
VERTEX
  8
0
 10
2.8493
 20
3.6522
 30
0.0
  0
VERTEX
  8
0
 10
2.8543
 20
3.6322
 30
0.0
  0
SEQEND
  0
POLYLINE
  8
0
  6
LINETYPE_2
 66
     1
 10
0.0
 20
0.0
 30
0.0
  0
VERTEX
  8
0
 10
2.8543
 20
3.7972
 30
0.0
  0
VERTEX
  8
0
 10
2.8543
 20
3.5472
 30
0.0
  0
SEQEND
  0
TEXT
  8
0
 10
2.9232
 20
3.8592
 30
0.0
 40
0.1378
  1
10
 50
90.000000
  0
POLYLINE
  8
0
  6
LINETYPE_2
 66
     1
 10
0.0
 20
0.0
 30
0.0
  0
VERTEX
  8
0
 10
3.2874
 20
3.0915
 30
0.0
  0
VERTEX
  8
0
 10
3.2874
 20
2.2805
 30
0.0
  0
SEQEND
  0
POLYLINE
  8
0
  6
LINETYPE_2
 66
     1
 10
0.0
 20
0.0
 30
0.0
  0
VERTEX
  8
0
 10
4.4685
 20
3.0915
 30
0.0
  0
VERTEX
  8
0
 10
4.4685
 20
2.2805
 30
0.0
  0
SEQEND
  0
POLYLINE
  8
0
  6
LINETYPE_2
 66
     1
 10
0.0
 20
0.0
 30
0.0
  0
VERTEX
  8
0
 10
3.2874
 20
2.4055
 30
0.0
  0
VERTEX
  8
0
 10
3.1624
 20
2.4305
 30
0.0
  0
VERTEX
  8
0
 10
3.1624
 20
2.3805
 30
0.0
  0
VERTEX
  8
0
 10
3.2874
 20
2.4055
 30
0.0
  0
VERTEX
  8
0
 10
3.2674
 20
2.4055
 30
0.0
  0
VERTEX
  8
0
 10
3.1674
 20
2.4255
 30
0.0
  0
VERTEX
  8
0
 10
3.1674
 20
2.3855
 30
0.0
  0
VERTEX
  8
0
 10
3.2674
 20
2.4055
 30
0.0
  0
VERTEX
  8
0
 10
3.2474
 20
2.4055
 30
0.0
  0
VERTEX
  8
0
 10
3.1724
 20
2.4205
 30
0.0
  0
VERTEX
  8
0
 10
3.1724
 20
2.3905
 30
0.0
  0
VERTEX
  8
0
 10
3.2424
 20
2.4055
 30
0.0
  0
VERTEX
  8
0
 10
3.2274
 20
2.4055
 30
0.0
  0
VERTEX
  8
0
 10
3.1774
 20
2.4155
 30
0.0
  0
VERTEX
  8
0
 10
3.1774
 20
2.3955
 30
0.0
  0
VERTEX
  8
0
 10
3.2224
 20
2.4055
 30
0.0
  0
VERTEX
  8
0
 10
3.2024
 20
2.4055
 30
0.0
  0
VERTEX
  8
0
 10
3.1824
 20
2.4105
 30
0.0
  0
VERTEX
  8
0
 10
3.1824
 20
2.4005
 30
0.0
  0
VERTEX
  8
0
 10
3.2024
 20
2.4055
 30
0.0
  0
SEQEND
  0
POLYLINE
  8
0
  6
LINETYPE_2
 66
     1
 10
0.0
 20
0.0
 30
0.0
  0
VERTEX
  8
0
 10
3.0374
 20
2.4055
 30
0.0
  0
VERTEX
  8
0
 10
3.2874
 20
2.4055
 30
0.0
  0
SEQEND
  0
POLYLINE
  8
0
  6
LINETYPE_2
 66
     1
 10
0.0
 20
0.0
 30
0.0
  0
VERTEX
  8
0
 10
4.4685
 20
2.4055
 30
0.0
  0
VERTEX
  8
0
 10
4.5935
 20
2.3805
 30
0.0
  0
VERTEX
  8
0
 10
4.5935
 20
2.4305
 30
0.0
  0
VERTEX
  8
0
 10
4.4685
 20
2.4055
 30
0.0
  0
VERTEX
  8
0
 10
4.4885
 20
2.4055
 30
0.0
  0
VERTEX
  8
0
 10
4.5885
 20
2.3855
 30
0.0
  0
VERTEX
  8
0
 10
4.5885
 20
2.4255
 30
0.0
  0
VERTEX
  8
0
 10
4.4885
 20
2.4055
 30
0.0
  0
VERTEX
  8
0
 10
4.5085
 20
2.4055
 30
0.0
  0
VERTEX
  8
0
 10
4.5835
 20
2.3905
 30
0.0
  0
VERTEX
  8
0
 10
4.5835
 20
2.4205
 30
0.0
  0
VERTEX
  8
0
 10
4.5135
 20
2.4055
 30
0.0
  0
VERTEX
  8
0
 10
4.5285
 20
2.4055
 30
0.0
  0
VERTEX
  8
0
 10
4.5785
 20
2.3955
 30
0.0
  0
VERTEX
  8
0
 10
4.5785
 20
2.4155
 30
0.0
  0
VERTEX
  8
0
 10
4.5335
 20
2.4055
 30
0.0
  0
VERTEX
  8
0
 10
4.5535
 20
2.4055
 30
0.0
  0
VERTEX
  8
0
 10
4.5735
 20
2.4005
 30
0.0
  0
VERTEX
  8
0
 10
4.5735
 20
2.4105
 30
0.0
  0
VERTEX
  8
0
 10
4.5535
 20
2.4055
 30
0.0
  0
SEQEND
  0
POLYLINE
  8
0
  6
LINETYPE_2
 66
     1
 10
0.0
 20
0.0
 30
0.0
  0
VERTEX
  8
0
 10
4.7185
 20
2.4055
 30
0.0
  0
VERTEX
  8
0
 10
4.4685
 20
2.4055
 30
0.0
  0
SEQEND
  0
TEXT
  8
0
 10
4.7805
 20
2.3366
 30
0.0
 40
0.1378
  1
30
 50
0.000000
  0
POLYLINE
  8
0
  6
LINETYPE_2
 66
     1
 10
0.0
 20
0.0
 30
0.0
  0
VERTEX
  8
0
 10
3.2874
 20
3.0915
 30
0.0
  0
VERTEX
  8
0
 10
3.2874
 20
2.6348
 30
0.0
  0
SEQEND
  0
POLYLINE
  8
0
  6
LINETYPE_2
 66
     1
 10
0.0
 20
0.0
 30
0.0
  0
VERTEX
  8
0
 10
3.4843
 20
3.2883
 30
0.0
  0
VERTEX
  8
0
 10
3.4843
 20
2.6348
 30
0.0
  0
SEQEND
  0
POLYLINE
  8
0
  6
LINETYPE_2
 66
     1
 10
0.0
 20
0.0
 30
0.0
  0
VERTEX
  8
0
 10
3.2874
 20
2.7598
 30
0.0
  0
VERTEX
  8
0
 10
3.1624
 20
2.7848
 30
0.0
  0
VERTEX
  8
0
 10
3.1624
 20
2.7348
 30
0.0
  0
VERTEX
  8
0
 10
3.2874
 20
2.7598
 30
0.0
  0
VERTEX
  8
0
 10
3.2674
 20
2.7598
 30
0.0
  0
VERTEX
  8
0
 10
3.1674
 20
2.7798
 30
0.0
  0
VERTEX
  8
0
 10
3.1674
 20
2.7398
 30
0.0
  0
VERTEX
  8
0
 10
3.2674
 20
2.7598
 30
0.0
  0
VERTEX
  8
0
 10
3.2474
 20
2.7598
 30
0.0
  0
VERTEX
  8
0
 10
3.1724
 20
2.7748
 30
0.0
  0
VERTEX
  8
0
 10
3.1724
 20
2.7448
 30
0.0
  0
VERTEX
  8
0
 10
3.2424
 20
2.7598
 30
0.0
  0
VERTEX
  8
0
 10
3.2274
 20
2.7598
 30
0.0
  0
VERTEX
  8
0
 10
3.1774
 20
2.7698
 30
0.0
  0
VERTEX
  8
0
 10
3.1774
 20
2.7498
 30
0.0
  0
VERTEX
  8
0
 10
3.2224
 20
2.7598
 30
0.0
  0
VERTEX
  8
0
 10
3.2024
 20
2.7598
 30
0.0
  0
VERTEX
  8
0
 10
3.1824
 20
2.7648
 30
0.0
  0
VERTEX
  8
0
 10
3.1824
 20
2.7548
 30
0.0
  0
VERTEX
  8
0
 10
3.2024
 20
2.7598
 30
0.0
  0
SEQEND
  0
POLYLINE
  8
0
  6
LINETYPE_2
 66
     1
 10
0.0
 20
0.0
 30
0.0
  0
VERTEX
  8
0
 10
3.0374
 20
2.7598
 30
0.0
  0
VERTEX
  8
0
 10
3.2874
 20
2.7598
 30
0.0
  0
SEQEND
  0
POLYLINE
  8
0
  6
LINETYPE_2
 66
     1
 10
0.0
 20
0.0
 30
0.0
  0
VERTEX
  8
0
 10
3.4843
 20
2.7598
 30
0.0
  0
VERTEX
  8
0
 10
3.6093
 20
2.7348
 30
0.0
  0
VERTEX
  8
0
 10
3.6093
 20
2.7848
 30
0.0
  0
VERTEX
  8
0
 10
3.4843
 20
2.7598
 30
0.0
  0
VERTEX
  8
0
 10
3.5043
 20
2.7598
 30
0.0
  0
VERTEX
  8
0
 10
3.6043
 20
2.7398
 30
0.0
  0
VERTEX
  8
0
 10
3.6043
 20
2.7798
 30
0.0
  0
VERTEX
  8
0
 10
3.5043
 20
2.7598
 30
0.0
  0
VERTEX
  8
0
 10
3.5243
 20
2.7598
 30
0.0
  0
VERTEX
  8
0
 10
3.5993
 20
2.7448
 30
0.0
  0
VERTEX
  8
0
 10
3.5993
 20
2.7748
 30
0.0
  0
VERTEX
  8
0
 10
3.5293
 20
2.7598
 30
0.0
  0
VERTEX
  8
0
 10
3.5443
 20
2.7598
 30
0.0
  0
VERTEX
  8
0
 10
3.5943
 20
2.7498
 30
0.0
  0
VERTEX
  8
0
 10
3.5943
 20
2.7698
 30
0.0
  0
VERTEX
  8
0
 10
3.5493
 20
2.7598
 30
0.0
  0
VERTEX
  8
0
 10
3.5693
 20
2.7598
 30
0.0
  0
VERTEX
  8
0
 10
3.5893
 20
2.7548
 30
0.0
  0
VERTEX
  8
0
 10
3.5893
 20
2.7648
 30
0.0
  0
VERTEX
  8
0
 10
3.5693
 20
2.7598
 30
0.0
  0
SEQEND
  0
POLYLINE
  8
0
  6
LINETYPE_2
 66
     1
 10
0.0
 20
0.0
 30
0.0
  0
VERTEX
  8
0
 10
3.7343
 20
2.7598
 30
0.0
  0
VERTEX
  8
0
 10
3.4843
 20
2.7598
 30
0.0
  0
SEQEND
  0
TEXT
  8
0
 10
2.8376
 20
2.6909
 30
0.0
 40
0.1378
  1
5
 50
0.000000
  0
POLYLINE
  8
0
  6
LINETYPE_2
 66
     1
 10
0.0
 20
0.0
 30
0.0
  0
VERTEX
  8
0
 10
3.2874
 20
3.0915
 30
0.0
  0
VERTEX
  8
0
 10
3.2874
 20
2.4379
 30
0.0
  0
SEQEND
  0
POLYLINE
  8
0
  6
LINETYPE_2
 66
     1
 10
0.0
 20
0.0
 30
0.0
  0
VERTEX
  8
0
 10
3.878
 20
3.2883
 30
0.0
  0
VERTEX
  8
0
 10
3.878
 20
2.4379
 30
0.0
  0
SEQEND
  0
POLYLINE
  8
0
  6
LINETYPE_2
 66
     1
 10
0.0
 20
0.0
 30
0.0
  0
VERTEX
  8
0
 10
3.2874
 20
2.5629
 30
0.0
  0
VERTEX
  8
0
 10
3.1624
 20
2.5879
 30
0.0
  0
VERTEX
  8
0
 10
3.1624
 20
2.5379
 30
0.0
  0
VERTEX
  8
0
 10
3.2874
 20
2.5629
 30
0.0
  0
VERTEX
  8
0
 10
3.2674
 20
2.5629
 30
0.0
  0
VERTEX
  8
0
 10
3.1674
 20
2.5829
 30
0.0
  0
VERTEX
  8
0
 10
3.1674
 20
2.5429
 30
0.0
  0
VERTEX
  8
0
 10
3.2674
 20
2.5629
 30
0.0
  0
VERTEX
  8
0
 10
3.2474
 20
2.5629
 30
0.0
  0
VERTEX
  8
0
 10
3.1724
 20
2.5779
 30
0.0
  0
VERTEX
  8
0
 10
3.1724
 20
2.5479
 30
0.0
  0
VERTEX
  8
0
 10
3.2424
 20
2.5629
 30
0.0
  0
VERTEX
  8
0
 10
3.2274
 20
2.5629
 30
0.0
  0
VERTEX
  8
0
 10
3.1774
 20
2.5729
 30
0.0
  0
VERTEX
  8
0
 10
3.1774
 20
2.5529
 30
0.0
  0
VERTEX
  8
0
 10
3.2224
 20
2.5629
 30
0.0
  0
VERTEX
  8
0
 10
3.2024
 20
2.5629
 30
0.0
  0
VERTEX
  8
0
 10
3.1824
 20
2.5679
 30
0.0
  0
VERTEX
  8
0
 10
3.1824
 20
2.5579
 30
0.0
  0
VERTEX
  8
0
 10
3.2024
 20
2.5629
 30
0.0
  0
SEQEND
  0
POLYLINE
  8
0
  6
LINETYPE_2
 66
     1
 10
0.0
 20
0.0
 30
0.0
  0
VERTEX
  8
0
 10
3.0374
 20
2.5629
 30
0.0
  0
VERTEX
  8
0
 10
3.2874
 20
2.5629
 30
0.0
  0
SEQEND
  0
POLYLINE
  8
0
  6
LINETYPE_2
 66
     1
 10
0.0
 20
0.0
 30
0.0
  0
VERTEX
  8
0
 10
3.878
 20
2.5629
 30
0.0
  0
VERTEX
  8
0
 10
4.003
 20
2.5379
 30
0.0
  0
VERTEX
  8
0
 10
4.003
 20
2.5879
 30
0.0
  0
VERTEX
  8
0
 10
3.878
 20
2.5629
 30
0.0
  0
VERTEX
  8
0
 10
3.898
 20
2.5629
 30
0.0
  0
VERTEX
  8
0
 10
3.998
 20
2.5429
 30
0.0
  0
VERTEX
  8
0
 10
3.998
 20
2.5829
 30
0.0
  0
VERTEX
  8
0
 10
3.898
 20
2.5629
 30
0.0
  0
VERTEX
  8
0
 10
3.918
 20
2.5629
 30
0.0
  0
VERTEX
  8
0
 10
3.993
 20
2.5479
 30
0.0
  0
VERTEX
  8
0
 10
3.993
 20
2.5779
 30
0.0
  0
VERTEX
  8
0
 10
3.923
 20
2.5629
 30
0.0
  0
VERTEX
  8
0
 10
3.938
 20
2.5629
 30
0.0
  0
VERTEX
  8
0
 10
3.988
 20
2.5529
 30
0.0
  0
VERTEX
  8
0
 10
3.988
 20
2.5729
 30
0.0
  0
VERTEX
  8
0
 10
3.943
 20
2.5629
 30
0.0
  0
VERTEX
  8
0
 10
3.963
 20
2.5629
 30
0.0
  0
VERTEX
  8
0
 10
3.983
 20
2.5579
 30
0.0
  0
VERTEX
  8
0
 10
3.983
 20
2.5679
 30
0.0
  0
VERTEX
  8
0
 10
3.963
 20
2.5629
 30
0.0
  0
SEQEND
  0
POLYLINE
  8
0
  6
LINETYPE_2
 66
     1
 10
0.0
 20
0.0
 30
0.0
  0
VERTEX
  8
0
 10
4.128
 20
2.5629
 30
0.0
  0
VERTEX
  8
0
 10
3.878
 20
2.5629
 30
0.0
  0
SEQEND
  0
TEXT
  8
0
 10
2.6998
 20
2.494
 30
0.0
 40
0.1378
  1
15
 50
0.000000
  0
POLYLINE
  8
0
  6
LINETYPE_2
 66
     1
 10
0.0
 20
0.0
 30
0.0
  0
VERTEX
  8
0
 10
4.0748
 20
3.4065
 30
0.0
  0
VERTEX
  8
0
 10
4.0748
 20
2.6348
 30
0.0
  0
SEQEND
  0
POLYLINE
  8
0
  6
LINETYPE_2
 66
     1
 10
0.0
 20
0.0
 30
0.0
  0
VERTEX
  8
0
 10
4.4685
 20
3.0915
 30
0.0
  0
VERTEX
  8
0
 10
4.4685
 20
2.6348
 30
0.0
  0
SEQEND
  0
POLYLINE
  8
0
  6
LINETYPE_2
 66
     1
 10
0.0
 20
0.0
 30
0.0
  0
VERTEX
  8
0
 10
4.0748
 20
2.7598
 30
0.0
  0
VERTEX
  8
0
 10
3.9498
 20
2.7848
 30
0.0
  0
VERTEX
  8
0
 10
3.9498
 20
2.7348
 30
0.0
  0
VERTEX
  8
0
 10
4.0748
 20
2.7598
 30
0.0
  0
VERTEX
  8
0
 10
4.0548
 20
2.7598
 30
0.0
  0
VERTEX
  8
0
 10
3.9548
 20
2.7798
 30
0.0
  0
VERTEX
  8
0
 10
3.9548
 20
2.7398
 30
0.0
  0
VERTEX
  8
0
 10
4.0548
 20
2.7598
 30
0.0
  0
VERTEX
  8
0
 10
4.0348
 20
2.7598
 30
0.0
  0
VERTEX
  8
0
 10
3.9598
 20
2.7748
 30
0.0
  0
VERTEX
  8
0
 10
3.9598
 20
2.7448
 30
0.0
  0
VERTEX
  8
0
 10
4.0298
 20
2.7598
 30
0.0
  0
VERTEX
  8
0
 10
4.0148
 20
2.7598
 30
0.0
  0
VERTEX
  8
0
 10
3.9648
 20
2.7698
 30
0.0
  0
VERTEX
  8
0
 10
3.9648
 20
2.7498
 30
0.0
  0
VERTEX
  8
0
 10
4.0098
 20
2.7598
 30
0.0
  0
VERTEX
  8
0
 10
3.9898
 20
2.7598
 30
0.0
  0
VERTEX
  8
0
 10
3.9698
 20
2.7648
 30
0.0
  0
VERTEX
  8
0
 10
3.9698
 20
2.7548
 30
0.0
  0
VERTEX
  8
0
 10
3.9898
 20
2.7598
 30
0.0
  0
SEQEND
  0
POLYLINE
  8
0
  6
LINETYPE_2
 66
     1
 10
0.0
 20
0.0
 30
0.0
  0
VERTEX
  8
0
 10
3.8248
 20
2.7598
 30
0.0
  0
VERTEX
  8
0
 10
4.0748
 20
2.7598
 30
0.0
  0
SEQEND
  0
POLYLINE
  8
0
  6
LINETYPE_2
 66
     1
 10
0.0
 20
0.0
 30
0.0
  0
VERTEX
  8
0
 10
4.4685
 20
2.7598
 30
0.0
  0
VERTEX
  8
0
 10
4.5935
 20
2.7348
 30
0.0
  0
VERTEX
  8
0
 10
4.5935
 20
2.7848
 30
0.0
  0
VERTEX
  8
0
 10
4.4685
 20
2.7598
 30
0.0
  0
VERTEX
  8
0
 10
4.4885
 20
2.7598
 30
0.0
  0
VERTEX
  8
0
 10
4.5885
 20
2.7398
 30
0.0
  0
VERTEX
  8
0
 10
4.5885
 20
2.7798
 30
0.0
  0
VERTEX
  8
0
 10
4.4885
 20
2.7598
 30
0.0
  0
VERTEX
  8
0
 10
4.5085
 20
2.7598
 30
0.0
  0
VERTEX
  8
0
 10
4.5835
 20
2.7448
 30
0.0
  0
VERTEX
  8
0
 10
4.5835
 20
2.7748
 30
0.0
  0
VERTEX
  8
0
 10
4.5135
 20
2.7598
 30
0.0
  0
VERTEX
  8
0
 10
4.5285
 20
2.7598
 30
0.0
  0
VERTEX
  8
0
 10
4.5785
 20
2.7498
 30
0.0
  0
VERTEX
  8
0
 10
4.5785
 20
2.7698
 30
0.0
  0
VERTEX
  8
0
 10
4.5335
 20
2.7598
 30
0.0
  0
VERTEX
  8
0
 10
4.5535
 20
2.7598
 30
0.0
  0
VERTEX
  8
0
 10
4.5735
 20
2.7548
 30
0.0
  0
VERTEX
  8
0
 10
4.5735
 20
2.7648
 30
0.0
  0
VERTEX
  8
0
 10
4.5535
 20
2.7598
 30
0.0
  0
SEQEND
  0
POLYLINE
  8
0
  6
LINETYPE_2
 66
     1
 10
0.0
 20
0.0
 30
0.0
  0
VERTEX
  8
0
 10
4.7185
 20
2.7598
 30
0.0
  0
VERTEX
  8
0
 10
4.4685
 20
2.7598
 30
0.0
  0
SEQEND
  0
TEXT
  8
0
 10
4.7805
 20
2.6909
 30
0.0
 40
0.1378
  1
10
 50
0.000000
  0
POLYLINE
  8
0
  6
LINETYPE_2
 66
     1
 10
0.0
 20
0.0
 30
0.0
  0
VERTEX
  8
0
 10
4.2717
 20
3.2883
 30
0.0
  0
VERTEX
  8
0
 10
4.2717
 20
2.4379
 30
0.0
  0
SEQEND
  0
POLYLINE
  8
0
  6
LINETYPE_2
 66
     1
 10
0.0
 20
0.0
 30
0.0
  0
VERTEX
  8
0
 10
4.4685
 20
3.0915
 30
0.0
  0
VERTEX
  8
0
 10
4.4685
 20
2.4379
 30
0.0
  0
SEQEND
  0
POLYLINE
  8
0
  6
LINETYPE_2
 66
     1
 10
0.0
 20
0.0
 30
0.0
  0
VERTEX
  8
0
 10
4.2717
 20
2.5629
 30
0.0
  0
VERTEX
  8
0
 10
4.1467
 20
2.5879
 30
0.0
  0
VERTEX
  8
0
 10
4.1467
 20
2.5379
 30
0.0
  0
VERTEX
  8
0
 10
4.2717
 20
2.5629
 30
0.0
  0
VERTEX
  8
0
 10
4.2517
 20
2.5629
 30
0.0
  0
VERTEX
  8
0
 10
4.1517
 20
2.5829
 30
0.0
  0
VERTEX
  8
0
 10
4.1517
 20
2.5429
 30
0.0
  0
VERTEX
  8
0
 10
4.2517
 20
2.5629
 30
0.0
  0
VERTEX
  8
0
 10
4.2317
 20
2.5629
 30
0.0
  0
VERTEX
  8
0
 10
4.1567
 20
2.5779
 30
0.0
  0
VERTEX
  8
0
 10
4.1567
 20
2.5479
 30
0.0
  0
VERTEX
  8
0
 10
4.2267
 20
2.5629
 30
0.0
  0
VERTEX
  8
0
 10
4.2117
 20
2.5629
 30
0.0
  0
VERTEX
  8
0
 10
4.1617
 20
2.5729
 30
0.0
  0
VERTEX
  8
0
 10
4.1617
 20
2.5529
 30
0.0
  0
VERTEX
  8
0
 10
4.2067
 20
2.5629
 30
0.0
  0
VERTEX
  8
0
 10
4.1867
 20
2.5629
 30
0.0
  0
VERTEX
  8
0
 10
4.1667
 20
2.5679
 30
0.0
  0
VERTEX
  8
0
 10
4.1667
 20
2.5579
 30
0.0
  0
VERTEX
  8
0
 10
4.1867
 20
2.5629
 30
0.0
  0
SEQEND
  0
POLYLINE
  8
0
  6
LINETYPE_2
 66
     1
 10
0.0
 20
0.0
 30
0.0
  0
VERTEX
  8
0
 10
4.0217
 20
2.5629
 30
0.0
  0
VERTEX
  8
0
 10
4.2717
 20
2.5629
 30
0.0
  0
SEQEND
  0
POLYLINE
  8
0
  6
LINETYPE_2
 66
     1
 10
0.0
 20
0.0
 30
0.0
  0
VERTEX
  8
0
 10
4.4685
 20
2.5629
 30
0.0
  0
VERTEX
  8
0
 10
4.5935
 20
2.5379
 30
0.0
  0
VERTEX
  8
0
 10
4.5935
 20
2.5879
 30
0.0
  0
VERTEX
  8
0
 10
4.4685
 20
2.5629
 30
0.0
  0
VERTEX
  8
0
 10
4.4885
 20
2.5629
 30
0.0
  0
VERTEX
  8
0
 10
4.5885
 20
2.5429
 30
0.0
  0
VERTEX
  8
0
 10
4.5885
 20
2.5829
 30
0.0
  0
VERTEX
  8
0
 10
4.4885
 20
2.5629
 30
0.0
  0
VERTEX
  8
0
 10
4.5085
 20
2.5629
 30
0.0
  0
VERTEX
  8
0
 10
4.5835
 20
2.5479
 30
0.0
  0
VERTEX
  8
0
 10
4.5835
 20
2.5779
 30
0.0
  0
VERTEX
  8
0
 10
4.5135
 20
2.5629
 30
0.0
  0
VERTEX
  8
0
 10
4.5285
 20
2.5629
 30
0.0
  0
VERTEX
  8
0
 10
4.5785
 20
2.5529
 30
0.0
  0
VERTEX
  8
0
 10
4.5785
 20
2.5729
 30
0.0
  0
VERTEX
  8
0
 10
4.5335
 20
2.5629
 30
0.0
  0
VERTEX
  8
0
 10
4.5535
 20
2.5629
 30
0.0
  0
VERTEX
  8
0
 10
4.5735
 20
2.5579
 30
0.0
  0
VERTEX
  8
0
 10
4.5735
 20
2.5679
 30
0.0
  0
VERTEX
  8
0
 10
4.5535
 20
2.5629
 30
0.0
  0
SEQEND
  0
POLYLINE
  8
0
  6
LINETYPE_2
 66
     1
 10
0.0
 20
0.0
 30
0.0
  0
VERTEX
  8
0
 10
4.7185
 20
2.5629
 30
0.0
  0
VERTEX
  8
0
 10
4.4685
 20
2.5629
 30
0.0
  0
SEQEND
  0
TEXT
  8
0
 10
4.7805
 20
2.494
 30
0.0
 40
0.1378
  1
5
 50
0.000000
  0
ENDSEC
  0
EOF
